Cifra Club

All For Nothing (feat. Page Hamilton)

Linkin Park

Cifra: Principal
exibições 1.382
Tom: A
Intro:

Guitarra 1
E|------------------------------------------------------------|
B|------------------------------------------------------------|
G|-12-12-12-12-12-12-12-12-11-11-11-11-11-11-11-x-------------|
D|-12-12-12-12-12-12-12-12-12-12-12-12-12-12-12-x-------------|
A|------------------------------------------------------------|
D|------------------------------------------------------------|

E|------------------------------------------------------------|
B|------------------------------------------------------------|
G|-12-x-x-12-12-12-12-12-11-11-11-11-11-11-11-11--------------|
D|-12-x-x-12-12-12-12-12-12-12-12-12-12-12-12-12--------------|
A|------------------------------------------------------------|
D|------------------------------------------------------------|

E|------------------------------------------------------------|
B|------------------------------------------------------------|
G|-12-12-12-12-12-12-12-12-11-11-11-11-11-11-11-11------------|
D|-12-12-12-12-12-12-12-12-12-12-12-12-12-12-12-12------------|
A|------------------------------------------------------------|
D|------------------------------------------------------------|

E|------------------------------------------------------------|
B|------------------------------------------------------------|
G|-11-11-11-11-11-11-11-11-11-11-11-11-11-11-11-11------------|
D|-12-12-12-12-12-12-12-12-12-12-12-12-12-12-12-12------------|
A|------------------------------------------------------------|
D|------------------------------------------------------------|

Guitarra 2
E|------------------------------------------------------------|
B|------------------------------------------------------------|
G|------------------------------------------------------------|
D|-x-x-x-x----------------------------------------------------|
A|-x-x-x-x----------------------------------------------------|
D|-x-x-x-x----------------------------------------------------|

3x
E|------------------------------------------------------------|
B|------------------------------------------------------------|
G|--(b9)(b9)(b9)(b9)12-12-12-12---------7-7-7-7---------------|
D|--(b9)(b9)(b9)(b9)12-12-12-12-(b9)(b9)(b9)(b9)7-7-7-7-------|
A|--7-7-7-7-10-10-10-10-(b9)(b9)(b9)(b9)5-5-5-5---------------|
D|----------------------(b9)(b9)(b9)(b9)----------------------|

E|------------------------------------------------------------|
B|------------------------------------------------------------|
G|-11-11-11-11---------7-7-7-7-12-12-12-12--------------------|
D|-11-11-11-11-(b9)(b9)(b9)(b9)7-7-7-7-12-12-12-12-2~---------|
A|-(b9)-(b9)-(b9)-(b9)-(b9)(b9)(b9)(b9)5-5-5-5-10-10-10-10-2~-|
D|-------------(b9)(b9)(b9)(b9)--------------------2~---------|

Verso 1:

Guitarra 1
E|------------------------------------------------------------|
B|------------------------------------------------------------|
G|-12-12-12-12-12-12-12-12-11-11-11-11-11-11-11-x-------------|
D|-12-12-12-12-12-12-12-12-12-12-12-12-12-12-12-x-------------|
A|------------------------------------------------------------|
D|------------------------------------------------------------|

E|------------------------------------------------------------|
B|------------------------------------------------------------|
G|-12-x-x-12-12-12-12-12-11-11-11-11-11-11-11-11--------------|
D|-12-x-x-12-12-12-12-12-12-12-12-12-12-12-12-12--------------|
A|------------------------------------------------------------|
D|------------------------------------------------------------|

2x
E|------------------------------------------------------------|
B|------------------------------------------------------------|
G|-12-12-12-12-12-12-12-12-11-11-11-11-11-11-11-11------------|
D|-12-12-12-12-12-12-12-12-12-12-12-12-12-12-12-12------------|
A|------------------------------------------------------------|
D|------------------------------------------------------------|

E|------------------------------------------------------------|
B|------------------------------------------------------------|
G|-11-11-11-11-11-11-11-11-11-11-11-11-11-11-11-11------------|
D|-12-12-12-12-12-12-12-12-12-12-12-12-12-12-12-12------------|
A|------------------------------------------------------------|
D|------------------------------------------------------------|

E|------------------------------------------------------------|
B|------------------------------------------------------------|
G|-12-12-12-12-12-12-12-12-12-12-12-12-12-12-12-12------------|
D|-12-12-12-12-12-12-12-12-12-12-12-12-12-12-12-12------------|
A|------------------------------------------------------------|
D|------------------------------------------------------------|

E|------------------------------------------------------------|
B|------------------------------------------------------------|
G|-11-11-11-11-11-11-11-11-11-11-11-11-11-11-11-11------------|
D|-12-12-12-12-12-12-12-12-12-12-12-12-12-12-12-12------------|
A|------------------------------------------------------------|
D|------------------------------------------------------------|

E|------------------------------------------------------------|
B|------------------------------------------------------------|
G|-12-12-12-12-12-12-12-12-12-12-12-12-12-12-12-12------------|
D|-12-12-12-12-12-12-12-12-12-12-12-12-12-12-12-12------------|
A|------------------------------------------------------------|
D|------------------------------------------------------------|

E|------------------------------------------------------------|
B|------------------------------------------------------------|
G|-11-11-11-11-11-11-11-11-11-11-11---------------------------|
D|-12-12-12-12-12-12-12-12-12-12-12---------------------------|
A|------------------------------------------------------------|
D|------------------------------------------------------------|

Guitarra 2
E|------------------------------------------------------------|
B|------------------------------------------------------------|
G|------------------------------------------------------------|
D|-2~----------5~------7~-------------------------------------|
A|-2~----------5~------7~-------------------------------------|
D|-2~----------5~------7~-------------------------------------|

E|------------------------------------------------------------|
B|------------------------------------------------------------|
G|-5~---------------7~----------------------------------------|
D|-5~---------------7~----------------------------------------|
A|-3~---------------5~----------------------------------------|
D|------------------------------------------------------------|

E|------------------------------------------------------------|
B|------------------------------------------------------------|
G|-5~---------------7~----------------------------------------|
D|-5~---------------7~--------7~------x-x-x-x-----------------|
A|-3~---------------5~--------7~------x-x-x-x-----------------|
D|----------------------------7~------x-x-x-x-----------------|

Refrão:

Guitarra 1 (2x)
E|------------------------------------------------------------------------------------|
B|------------------------------------------------------------------------------------|
G|-(b9)(b9)(b9)(b9)(b9)(b9)(b9)(b9)(b9)(b9)(b9)(b9)4-4-4-4-5-5-5-5-5-5-5-5-5-5-5-5-4--|
D|-(b9)(b9)(b9)(b9)(b9)(b9)(b9)(b9)(b9)(b9)(b9)(b9)4-4-4-4-5-5-5-5-5-5-5-5-5-5-5-5-4--|
A|-7-7-7-7-7-7-7-7-7-7-7-7-2-2-2-2-3-3-3-3-3-3-3-3-3-3-3-3-2--------------------------|
D|------------------------------------------------------------------------------------|

E|------------------------------------------------------------|
B|------------------------------------------------------------|
G|-4-4-4---------------------------------7-7-7-7-7-7-7-7-7-7--|
D|-4-4-4-2-2-2-2-2-2-2-2-2-2-2-2-2-2-2-2-7-7-7-7-7-7-7-7-7-7--|
A|-2-2-2-2-2-2-2-2-2-2-2-2-2-2-2-2-2-2-2-5-5-5-5-5-5-5-5-5-5--|
D|-------2-2-2-2-2-2-2-2-2-2-2-2-2-2-2-2----------------------|

E|------------------------------------------------------------|
B|------------------------------------------------------------|
G|-7-7-7-7-7-7------------------------------------------------|
D|-7-7-7-7-7-7------------------------------------------------|
A|-5-5-5-5-5-5------------------------------------------------|
D|------------------------------------------------------------|

E|------------------------------------------------------------|
B|------------------------------------------------------------|
G|-7-7-7-7-7-7-7-7-7-7-7-7-7-7-7-7----------------------------|
D|-7-7-7-7-7-7-7-7-7-7-7-7-7-7-7-7----------------------------|
A|-5-5-5-5-5-5-5-5-5-5-5-5-5-5-5-5----------------------------|
D|------------------------------------------------------------|

Guitarra 1
E|------------------------------------------------------------|
B|------------------------------------------------------------|
G|-12-12-12-12-12-12-12-12-11-11-11-11-11-11-11-x-------------|
D|-12-12-12-12-12-12-12-12-12-12-12-12-12-12-12-x-------------|
A|------------------------------------------------------------|
D|------------------------------------------------------------|

E|------------------------------------------------------------|
B|------------------------------------------------------------|
G|-12-x-x-12-12-12-12-12-11-11-11-11-11-11-11-11--------------|
D|-12-x-x-12-12-12-12-12-12-12-12-12-12-12-12-12--------------|
A|------------------------------------------------------------|
D|------------------------------------------------------------|

E|------------------------------------------------------------|
B|------------------------------------------------------------|
G|-12-12-12-12-12-12-12-12-11-11-11-11-11-11-11-11------------|
D|-12-12-12-12-12-12-12-12-12-12-12-12-12-12-12-12------------|
A|------------------------------------------------------------|
D|------------------------------------------------------------|

E|------------------------------------------------------------|
B|------------------------------------------------------------|
G|-11-11-11-11-11-11-11-11-11-11-11-11-11-11-11-11------------|
D|-12-12-12-12-12-12-12-12-12-12-12-12-12-12-12-12------------|
A|------------------------------------------------------------|
D|------------------------------------------------------------|

Guitarra 2 (3x)
E|------------------------------------------------------------|
B|------------------------------------------------------------|
G|--(b9)(b9)(b9)(b9)12-12-12-12---------7-7-7-7---------------|
D|--(b9)(b9)(b9)(b9)12-12-12-12-(b9)(b9)(b9)(b9)7-7-7-7-------|
A|--7-7-7-7-10-10-10-10-(b9)(b9)(b9)(b9)5-5-5-5---------------|
D|----------------------(b9)(b9)(b9)(b9)----------------------|

E|------------------------------------------------------------|
B|------------------------------------------------------------|
G|-11-11-11-11---------7-7-7-7-12-12-12-12--------------------|
D|-11-11-11-11-(b9)(b9)(b9)(b9)7-7-7-7-12-12-12-12------------|
A|-(b9)-(b9)-(b9)-(b9)-(b9)(b9)(b9)(b9)5-5-5-5-10-10-10-10----|
D|-------------(b9)(b9)(b9)(b9)-------------------------------|

Verso 2

Guitarra 2
E|------------------------------------------------------------|
B|------------------------------------------------------------|
G|-12-12-12-12-12-12-12-12-11-11-11-11-11-11-11-x-------------|
D|-12-12-12-12-12-12-12-12-12-12-12-12-12-12-12-x-------------|
A|------------------------------------------------------------|
D|------------------------------------------------------------|

E|------------------------------------------------------------|
B|------------------------------------------------------------|
G|-12-x-x-12-12-12-12-12-11-11-11-11-11-11-11-11--------------|
D|-12-x-x-12-12-12-12-12-12-12-12-12-12-12-12-12--------------|
A|------------------------------------------------------------|
D|------------------------------------------------------------|

E|------------------------------------------------------------|
B|------------------------------------------------------------|
G|-11-11-11-11-11-11-11-11-11-11-11-11-11-11-11-11------------|
D|-12-12-12-12-12-12-12-12-12-12-12-12-12-12-12-12------------|
A|------------------------------------------------------------|
D|------------------------------------------------------------|

E|------------------------------------------------------------|
B|------------------------------------------------------------|
G|-12-12-12-12-12-12-12-12-11-11-11-11-11-11-11-11------------|
D|-12-12-12-12-12-12-12-12-12-12-12-12-12-12-12-12------------|
A|------------------------------------------------------------|
D|------------------------------------------------------------|

E|------------------------------------------------------------|
B|------------------------------------------------------------|
G|-11-11-11-11-11-11-11-11-11-11-11-11-11-11-11-11------------|
D|-12-12-12-12-12-12-12-12-12-12-12-12-12-12-12-12------------|
A|------------------------------------------------------------|
D|------------------------------------------------------------|

Guitarra 2 (2x)
E|------------------------------------------------------------|
B|------------------------------------------------------------|
G|------------------------------------------------------------|
D|-2~----------5~------7~-------------------------------------|
A|-2~----------5~------7~-------------------------------------|
D|-2~----------5~------7~-------------------------------------|

Refrão:

Guitarra 1
E|------------------------------------------------------------|
B|------------------------------------------------------------|
G|------------------------------------------------------------|
D|-x-x-x-x----------------------------------------------------|
A|-x-x-x-x----------------------------------------------------|
D|-x-x-x-x----------------------------------------------------|

2x
E|------------------------------------------------------------------------------------|
B|------------------------------------------------------------------------------------|
G|-(b9)(b9)(b9)(b9)(b9)(b9)(b9)(b9)(b9)(b9)(b9)(b9)4-4-4-4-5-5-5-5-5-5-5-5-5-5-5-5-4--|
D|-(b9)(b9)(b9)(b9)(b9)(b9)(b9)(b9)(b9)(b9)(b9)(b9)4-4-4-4-5-5-5-5-5-5-5-5-5-5-5-5-4--|
A|-7-7-7-7-7-7-7-7-7-7-7-7-2-2-2-2-3-3-3-3-3-3-3-3-3-3-3-3-2--------------------------|
D|------------------------------------------------------------------------------------|

E|------------------------------------------------------------|
B|------------------------------------------------------------|
G|-4-4-4---------------------------------7-7-7-7-7-7-7-7-7-7--|
D|-4-4-4-2-2-2-2-2-2-2-2-2-2-2-2-2-2-2-2-7-7-7-7-7-7-7-7-7-7--|
A|-2-2-2-2-2-2-2-2-2-2-2-2-2-2-2-2-2-2-2-5-5-5-5-5-5-5-5-5-5--|
D|-------2-2-2-2-2-2-2-2-2-2-2-2-2-2-2-2----------------------|

E|------------------------------------------------------------|
B|------------------------------------------------------------|
G|-7-7-7-7-7-7------------------------------------------------|
D|-7-7-7-7-7-7------------------------------------------------|
A|-5-5-5-5-5-5------------------------------------------------|
D|------------------------------------------------------------|

Gutiarra 2
E|------------------------------------------------------------|
B|------------------------------------------------------------|
G|-7-7-7-7-7-7-7-7-7-7-7-7-7-7-7-7----------------------------|
D|-7-7-7-7-7-7-7-7-7-7-7-7-7-7-7-7----------------------------|
A|-5-5-5-5-5-5-5-5-5-5-5-5-5-5-5-5----------------------------|
D|------------------------------------------------------------|

Solo/Interlúdio

Guitarra 1
E|------------------------------------------------------------|
B|------------------------------------------------------------|
G|-------------11-------------------------11------------------|
D|----12-14~------14-12----------12-14~------14-12------------|
A|-14-------------------14~---14-------------------14--12-10--|
D|------------------------------------------------------------|

E|------------------------------------------------------------|
B|------------------------------------------------------------|
G|------------------------------------------------------------|
D|------------------------------------------------------------|
A|-12-14~---12-10-----12-14-12~---14-12-10--------------------|
D|----------------14-----------------------14-----------------|

E|------------------------------------------------------------|
B|------------------------------------------------------------|
G|-------------11-------------------------11------------------|
D|----12-14~------14-12----------12-14~------14-12------------|
A|-14-------------------14~---14-------------------14--12-10--|
D|------------------------------------------------------------|

E|------------------------------------------------------------|
B|------------------------------------------------------------|
G|------------------------------------------------------------|
D|------------------------------------------------12~---------|
A|-12-14~---12-10-----12-14--12~----14~----15~----------------|
D|----------------14------------------------------------------|

E|-------------------------------------12-14-15----12v--------|
B|-------------------12-13----12-13-15----------15------------|
G|----11-12-11-12-14-------14---------------------------------|
D|-12---------------------------------------------------------|
A|------------------------------------------------------------|
D|------------------------------------------------------------|

Guitarra 2 (2x)
E|------------------------------------------------------------------------------------|
B|------------------------------------------------------------------------------------|
G|-(b9)(b9)(b9)(b9)(b9)(b9)(b9)(b9)(b9)(b9)(b9)(b9)4-4-4-4-5-5-5-5-5-5-5-5-5-5-5-5-4--|
D|-(b9)(b9)(b9)(b9)(b9)(b9)(b9)(b9)(b9)(b9)(b9)(b9)4-4-4-4-5-5-5-5-5-5-5-5-5-5-5-5-4--|
A|-7-7-7-7-7-7-7-7-7-7-7-7-2-2-2-2-3-3-3-3-3-3-3-3-3-3-3-3-2--------------------------|
D|------------------------------------------------------------------------------------|

E|------------------------------------------------------------|
B|------------------------------------------------------------|
G|-4-4-4---------------------------------7-7-7-7-7-7-7-7-7-7--|
D|-4-4-4-2-2-2-2-2-2-2-2-2-2-2-2-2-2-2-2-7-7-7-7-7-7-7-7-7-7--|
A|-2-2-2-2-2-2-2-2-2-2-2-2-2-2-2-2-2-2-2-5-5-5-5-5-5-5-5-5-5--|
D|-------2-2-2-2-2-2-2-2-2-2-2-2-2-2-2-2----------------------|

E|------------------------------------------------------------|
B|------------------------------------------------------------|
G|-7-7-7-7-7-7------------------------------------------------|
D|-7-7-7-7-7-7------------------------------------------------|
A|-5-5-5-5-5-5------------------------------------------------|
D|------------------------------------------------------------|

E|------------------------------------------------------------|
B|------------------------------------------------------------|
G|-7-7-7-7-7-7-7-7-7-7-7-7-7-7-7-7----------------------------|
D|-7-7-7-7-7-7-7-7-7-7-7-7-7-7-7-7----------------------------|
A|-5-5-5-5-5-5-5-5-5-5-5-5-5-5-5-5----------------------------|
D|------------------------------------------------------------|

Refrão:

Guitarra 1
E|------------------------------------------------------------|
B|------------------------------------------------------------|
G|-4-4-4-4-5-5-5-5-7-7-7-7-11-11-11-11------------------------|
D|-x-x-x-x-x-x-x-x-x-x-x-x-x--x--x--x-------------------------|
A|-2-2-2-2-3-3-3-3-5-5-5-5-(b9)-(b9)-(b9)-(b9)----------------|
D|------------------------------------------------------------|

Guitarra 1 e 2 (3x)
E|------------------------------------------------------------|
B|------------------------------------------------------------|
G|--(b9)(b9)(b9)(b9)12-12-12-12---------7-7-7-7---------------|
D|--(b9)(b9)(b9)(b9)12-12-12-12-(b9)(b9)(b9)(b9)7-7-7-7-------|
A|--7-7-7-7-10-10-10-10-(b9)(b9)(b9)(b9)5-5-5-5---------------|
D|----------------------(b9)(b9)(b9)(b9)----------------------|

2x
E|------------------------------------------------------------|
B|------------------------------------------------------------|
G|-11-11-11-11---------7-7-7-7-12-12-12-12--------------------|
D|-11-11-11-11-(b9)(b9)(b9)(b9)7-7-7-7-12-12-12-12------------|
A|-(b9)-(b9)-(b9)-(b9)-(b9)(b9)(b9)(b9)5-5-5-5-10-10-10-10----|
D|-------------(b9)(b9)(b9)(b9)-------------------------------|

Outro:

Guitarra 1
E|------------------------------------------------------------|
B|------------------------------------------------------------|
G|-----------13--14--------------12---------------------------|
D|-15--14--------------12--11--------14--15----12----12-------|
A|------------------------------------------------------------|
D|------------------------------------------------------------|
Acordes para:
    Colaboração e revisão:
    • Leandro Cesar

    0 comentários

      mostrar mais comentários

      Conseguiu tocar?

      0tocaram0ainda não

      Grave um vídeo tocando All For Nothing (feat. Page Hamilton) e mande pra gente!

      00:00 / 00:00
      outros vídeos desta música
      repetirqualidadeautomática
      Outro vídeos desta música
        00:00 / 00:00
        automática
        OK