Cifra Club

B 12

Linkin Park

Tab de baixo: Principal
exibições 2.062
INTRO
G:-------------------------------:G 
D:--------9--------7--------5----:D
A:-------------------------------:A
E:-7X-7X-----5X-5X----3X-3X------:E
T T P   T T P    T T P

REFRÃO
G:-------------------------------:G 
D:-------------------------------:D
A:-------------------------------:A
E:-7-7-7-3-3-3-5-5-5-2-2-2-------:E

(repete intro)
dae vc vai ouvi uma parte assim na intro

G:---------------------------------------:G 
D:--------9--------7--------5------------:D
A:---------------------------------------:A
E:-7X-7X-----5X-5X----3X-3X----3/12/9----:E

G:-----------------------:G 
D:----5------7----9//----:D
A:-----------------------:A  
E:-3X----5X--------------:E
Colaboração e revisão:
  • kaique lopes

0 comentários

    mostrar mais comentários

    Conseguiu tocar?

    1tocaram0ainda não

    Grave um vídeo tocando B 12 e mande pra gente!

    00:00 / 00:00
    outros vídeos desta música
    repetirqualidadeautomática
    Outro vídeos desta música
      00:00 / 00:00
      automática
      OK