Cifra Club

By Myself

Linkin Park

Cifra: Principal
exibições 58.142
Tom: C
Intro - Guitar 1 (Palm-muted)

|-----------------------------------------------------------------|
|-----------------------------------------------------------------|
|-----------------------------------------------------------------|
|-----------------------------------------------------1-1---1---1-|
|-----------------------------------------------------1-1---1---1-|
|-----------------------------------------------------1-1---1---1-|


|-----------------------------------------------------------------|
|-----------------------------------------------------------------|
|-----------------------------------------------------------------|
|-7---7---------------1-1---1---1-7---7---------------1-1---1---1-|
|-7---7---------------1-1---1---1-7---7---------------1-1---1---1-|
|-7---7---2.7*--------1-1---1---1-7---7---2.7*--------1-1---1---1-|
|PM                   . .   .   .                     . .   .   .
|Guitar 1
|
|-----------------------------------------------------------------|
|-----------------------------------------------------------------|
|-----------------------------------------------------------------|
|-7---7---------------1-1---1---1-7---7---------------1-1---1---1-|
|-7---7---------------1-1---1---1-7---7---------------1-1---1---1-|
|-7---7---------------1-1---1---1-7---7---------------1-1---1---1-|
|PM                   . .   .   .                     . .   .   .

|Guitar 2


|-----------------------------------------------------------------|
|-----------------------------------------------------------------|
|-----------------------------------------------------------------|
|-7---7---------------1-1---1---1-7---7---------------1-1---1---1-|
|-7---7---------------1-1---1---1-7---7---------------1-1---1---1-|
|-7---7---2.7*--------1-1---1---1-7---7---2.7*--------1-1---1---1-|
|PM                   . .   .   .                     . .   .   .
|Guitar 1
|
|-----------------------------------------------------------------|
|-----------------------------------------------------------------|
|-----------------------------------------------------------------|
|-7---7---------------1-1---1---1-7---7---------------1-1---1---1-|
|-7---7---------------1-1---1---1-7---7---------------1-1---1---1-|
|-7---7---------------1-1---1---1-7---7---------------1-1---1---1-|
|PM                   . .   .   .                     . .   .   .

|Guitar 2

First Verse - Guitars 1 and 2 (Palm-muted)

|-----------------------------------------------------------------|
|-----------------------------------------------------------------|
|-----------------------------------------------------------------|
|-----------------------------------------------------1-1---1---1-|
|-----------------------------------------------------1-1---1---1-|
|-----------------------------------------------------1-1---1---1-|

*Note: This is only played at 0:28, there is no guitar in the rest of the verse.

Pre-Chorus - Guitars 1 and 2 (Palm-muted)

|-----------------------------------------------------------------|
|-----------------------------------------------------------------|
|-----------------------------------------------------------------|
|-----------------------------------------------------1-1---1---1-|
|-----------------------------------------------------1-1---1---1-|
|-----------------------------------------------------1-1---1---1-|


|-----------------------------------------------------------------|
|-----------------------------------------------------------------|
|-----------------------------------------------------------------|
|-7---7---------------1-1---1---1-7---7---------------1-1---1---1-|
|-7---7---------------1-1---1---1-7---7---------------1-1---1---1-|
|-7---7---2.7*--------1-1---1---1-7---7---2.7*--------1-1---1---1-|
|PM                   . .   .   .                     . .   .   .
|Guitar 1
|
|-----------------------------------------------------------------|
|-----------------------------------------------------------------|
|-----------------------------------------------------------------|
|-7---7---------------1-1---1---1-7---7---------------1-1---1---1-|
|-7---7---------------1-1---1---1-7---7---------------1-1---1---1-|
|-7---7---------------1-1---1---1-7---7---------------1-1---1---1-|
|PM                   . .   .   .                     . .   .   .

|Guitar 2


|-----------------------------------------------------------------|
|-----------------------------------------------------------------|
|-----------------------------------------------------------------|
|-7---7---------------1-1---1---1-7---7---------------1-1---1---1-|
|-7---7---------------1-1---1---1-7---7---------------1-1---1---1-|
|-7---7---2.7*--------1-1---1---1-7---7---2.7*--------1-1---1---1-|
|PM                   . .   .   .                     . .   .   .
|Guitar 1
|
|-----------------------------------------------------------------|
|-----------------------------------------------------------------|
|-----------------------------------------------------------------|
|-7---7---------------1-1---1---1-7---7---------------1-1---1---1-|
|-7---7---------------1-1---1---1-7---7---------------1-1---1---1-|
|-7---7---------------1-1---1---1-7---7---------------1-1---1---1-|
|PM                   . .   .   .                     . .   .   .

|Guitar 2

Chorus - Guitars 1 and 2

|-----------------------------------------------------------------|
|-----------------------------------------------------------------|
|-----------------------------------------------------------------|
|-7-------------------------------3-------x-x---x-0-------x-x---x-|
|-7-------------------------------3-------x-x---x-0-------x-x---x-|
|-7-------------------------------3-------x-x---x-0-------x-x---x-|


|-----------------------------------------------------------------|
|-----------------------------------------------------------------|
|-----------------------------------------------------------------|
|-7-------------------------------3-------x-x---x-0-------x-x---x-|
|-7-------------------------------3-------x-x---x-0-------x-x---x-|
|-7-------------------------------3-------x-x---x-0-------x-x---x-|


|-----------------------------------------------------------------|
|-----------------------------------------------------------------|
|-----------------------------------------------------------------|
|-7-------------------------------3-------x-x---x-0-------x-x---x-|
|-7-------------------------------3-------x-x---x-0-------x-x---x-|
|-7-------------------------------3-------x-x---x-0-------x-x---x-|


|-----------------------------------------------------------------|
|-----------------------------------------------------------------|
|-----------------------------------------------------------------|
|-7-------------------------------3-------x-x---x-0-------x-x---x-|
|-7-------------------------------3-------x-x---x-0-------x-x---x-|
|-7-------------------------------3-------x-x---x-0-------x-x---x-|


(No guitar in 2nd verse)

Pre-Chorus - Guitars 1 and 2 (Palm-muted)

|-----------------------------------------------------------------|
|-----------------------------------------------------------------|
|-----------------------------------------------------------------|
|-----------------------------------------------------1-1---1---1-|
|-----------------------------------------------------1-1---1---1-|
|-----------------------------------------------------1-1---1---1-|


|-----------------------------------------------------------------|
|-----------------------------------------------------------------|
|-----------------------------------------------------------------|
|-7---7---------------1-1---1---1-7---7---------------1-1---1---1-|
|-7---7---------------1-1---1---1-7---7---------------1-1---1---1-|
|-7---7---2.7*--------1-1---1---1-7---7---2.7*--------1-1---1---1-|
|PM                   . .   .   .                     . .   .   .
|Guitar 1
|
|-----------------------------------------------------------------|
|-----------------------------------------------------------------|
|-----------------------------------------------------------------|
|-7---7---------------1-1---1---1-7---7---------------1-1---1---1-|
|-7---7---------------1-1---1---1-7---7---------------1-1---1---1-|
|-7---7---------------1-1---1---1-7---7---------------1-1---1---1-|
|PM                   . .   .   .                     . .   .   .

|Guitar 2


|-----------------------------------------------------------------|
|-----------------------------------------------------------------|
|-----------------------------------------------------------------|
|-7---7---------------1-1---1---1-7---7---------------1-1---1---1-|
|-7---7---------------1-1---1---1-7---7---------------1-1---1---1-|
|-7---7---2.7*--------1-1---1---1-7---7---2.7*--------1-1---1---1-|
|PM                   . .   .   .                     . .   .   .
|Guitar 1
|
|-----------------------------------------------------------------|
|-----------------------------------------------------------------|
|-----------------------------------------------------------------|
|-7---7---------------1-1---1---1-7---7---------------1-1---1---1-|
|-7---7---------------1-1---1---1-7---7---------------1-1---1---1-|
|-7---7---------------1-1---1---1-7---7---------------1-1---1---1-|
|PM                   . .   .   .                     . .   .   .

|Guitar 2

Chorus - Guitars 1 and 2

|-----------------------------------------------------------------|
|-----------------------------------------------------------------|
|-----------------------------------------------------------------|
|-7-------------------------------3-------x-x---x-0-------x-x---x-|
|-7-------------------------------3-------x-x---x-0-------x-x---x-|
|-7-------------------------------3-------x-x---x-0-------x-x---x-|


|-----------------------------------------------------------------|
|-----------------------------------------------------------------|
|-----------------------------------------------------------------|
|-7-------------------------------3-------x-x---x-0-------x-x---x-|
|-7-------------------------------3-------x-x---x-0-------x-x---x-|
|-7-------------------------------3-------x-x---x-0-------x-x---x-|


|-----------------------------------------------------------------|
|-----------------------------------------------------------------|
|-----------------------------------------------------------------|
|-7-------------------------------3-------x-x---x-0-------x-x---x-|
|-7-------------------------------3-------x-x---x-0-------x-x---x-|
|-7-------------------------------3-------x-x---x-0-------x-x---x-|


|-----------------------------------------------------------------|
|-----------------------------------------------------------------|
|-----------------------------------------------------------------|
|-7-------------------------------3-------x-x---x-0-------x-x---x-|
|-7-------------------------------3-------x-x---x-0-------x-x---x-|
|-7-------------------------------3-------x-x---x-0-------x-x---x-|


Bridge - Guitar 3

|-----------------------------------------------------------------|
|-----------------------------------------------------------------|
|-----------------------------------------------------------------|
|-7---7---------------1-1---1---1-7---7---------------1-1---1---1-|
|-7---7---------------1-1---1---1-7---7---------------1-1---1---1-|
|-7---7---------------1-1---1---1-7---7---------------1-1---1---1-|
|PM                   . .   .   .                     . .   .   .


|-----------------------------------------------------------------|
|-----------------------------------------------------------------|
|-----------------------------------------------------------------|
|-7---7---------------1-1---1---1-7---7---------------1-1---1---1-|
|-7---7---------------1-1---1---1-7---7---------------1-1---1---1-|
|-7---7---------------1-1---1---1-7---7---------------1-1---1---1-|
|PM                   . .   .   .                     . .   .   .


|-----------------------------------------------------------------|
|-----------------------------------------------------------------|
|-----------------------------------------------------------------|
|-7---7---------------1-1---1---1-7---7---------------1-1---1---1-|
|-7---7---------------1-1---1---1-7---7---------------1-1---1---1-|
|-7---7---------------1-1---1---1-7---7---------------1-1---1---1-|
|PM                   . .   .   .                     . .   .   .


|-----------------------------------------------------------------|
|-----------------------------------------------------------------|
|-----------------------------------------------------------------|
|-7---7---------------1-1---1---1-7---7---------------------------|
|-7---7---------------1-1---1---1-7---7---------------------------|
|-7---7---------------1-1---1---1-7---7---------------------------|
|PM                   . .   .   .


Breakdown

|-----------------------------------------------------------------|
|-----------------------------------------------------------------|
|-----------------------------------------------------------------|
|-7---7---------------1-1---1---1-7---7---------------1-1---1---1-|
|-7---7---------------1-1---1---1-7---7---------------1-1---1---1-|
|-7---7---2.7*--------1-1---1---1-7---7---2.7*--------1-1---1---1-|
|PM                   . .   .   .                     . .   .   .
|Guitar 1
|
|-----------------------------------------------------------------|
|-----------------------------------------------------------------|
|-----------------------------------------------------------------|
|-7---7---------------1-1---1---1-7---7---------------1-1---1---1-|
|-7---7---------------1-1---1---1-7---7---------------1-1---1---1-|
|-7---7---------------1-1---1---1-7---7---------------1-1---1---1-|
|PM                   . .   .   .                     . .   .   .

|Guitar 2


|-----------------------------------------------------------------|
|-----------------------------------------------------------------|
|-----------------------------------------------------------------|
|-7---7---------------1-1---1---1-7---7---------------1-1---1---1-|
|-7---7---------------1-1---1---1-7---7---------------1-1---1---1-|
|-7---7---2.7*--------1-1---1---1-7---7---2.7*--------1-1---1---1-|
|PM                   . .   .   .                     . .   .   .
|Guitar 1
|
|-----------------------------------------------------------------|
|-----------------------------------------------------------------|
|-----------------------------------------------------------------|
|-7---7---------------1-1---1---1-7---7---------------1-1---1---1-|
|-7---7---------------1-1---1---1-7---7---------------1-1---1---1-|
|-7---7---------------1-1---1---1-7---7---------------1-1---1---1-|
|PM                   . .   .   .                     . .   .   .

|Guitar 2


|-----------------------------------------------------------------|
|-----------------------------------------------------------------|
|-----------------------------------------------------------------|
|-7---7---------------1-1---1---1-7---7---------------1-1---1---1-|
|-7---7---------------1-1---1---1-7---7---------------1-1---1---1-|
|-7---7---2.7*--------1-1---1---1-7---7---2.7*--------1-1---1---1-|
|PM                   . .   .   .                     . .   .   .
|Guitar 1
|
|-----------------------------------------------------------------|
|-----------------------------------------------------------------|
|-----------------------------------------------------------------|
|-7---7---------------1-1---1---1-7---7---------------1-1---1---1-|
|-7---7---------------1-1---1---1-7---7---------------1-1---1---1-|
|-7---7---------------1-1---1---1-7---7---------------1-1---1---1-|
|PM                   . .   .   .                     . .   .   .

|Guitar 2


|-----------------------------------------------------------------|
|-----------------------------------------------------------------|
|-----------------------------------------------------------------|
|-7---7---------------1-1---1---1-7---7---------------1-1---1---1-|
|-7---7---------------1-1---1---1-7---7---------------1-1---1---1-|
|-7---7---2.7*--------1-1---1---1-7---7---2.7*--------1-1---1---1-|
|PM                   . .   .   .                     . .   .   .
|Guitar 1
|
|-----------------------------------------------------------------|
|-----------------------------------------------------------------|
|-----------------------------------------------------------------|
|-7---7---------------1-1---1---1-7---7---------------1-1---1---1-|
|-7---7---------------1-1---1---1-7---7---------------1-1---1---1-|
|-7---7---------------1-1---1---1-7---7---------------1-1---1---1-|
|PM                   . .   .   .                     . .   .   .

|Guitar 2

Final Chorus - Guitars 1 and 2

|-----------------------------------------------------------------|
|-----------------------------------------------------------------|
|-----------------------------------------------------------------|
|-7-------------------------------3-------x-x---x-0-------x-x---x-|
|-7-------------------------------3-------x-x---x-0-------x-x---x-|
|-7-------------------------------3-------x-x---x-0-------x-x---x-|


|-----------------------------------------------------------------|
|-----------------------------------------------------------------|
|-----------------------------------------------------------------|
|-7-------------------------------3-------x-x---x-0-------x-x---x-|
|-7-------------------------------3-------x-x---x-0-------x-x---x-|
|-7-------------------------------3-------x-x---x-0-------x-x---x-|


|-----------------------------------------------------------------|
|-----------------------------------------------------------------|
|-----------------------------------------------------------------|
|-7-------------------------------3-------x-x---x-0-------x-x---x-|
|-7-------------------------------3-------x-x---x-0-------x-x---x-|
|-7-------------------------------3-------x-x---x-0-------x-x---x-|


|-----------------------------------------------------------------|
|-----------------------------------------------------------------|
|-----------------------------------------------------------------|
|-7-------------------------------3-------x-x---x-0-------x-x---x-|
|-7-------------------------------3-------x-x---x-0-------x-x---x-|
|-7-------------------------------3-------x-x---x-0-------x-x---x-|


|-----------------------------------------------------------------|
|-----------------------------------------------------------------|
|-----------------------------------------------------------------|
|-7-------------------------------3-------x-x---x-0-------x-x---x-|
|-7-------------------------------3-------x-x---x-0-------x-x---x-|
|-7-------------------------------3-------x-x---x-0-------x-x---x-|


|-----------------------------------------------------------------|
|-----------------------------------------------------------------|
|-----------------------------------------------------------------|
|-7-------------------------------3-------x-x---x-0-------x-x---x-|
|-7-------------------------------3-------x-x---x-0-------x-x---x-|
|-7-------------------------------3-------x-x---x-0-------x-x---x-|


|-----------------------------------------------------------------|
|-----------------------------------------------------------------|
|-----------------------------------------------------------------|
|-7-------------------------------3-------x-x---x-0-------x-x---x-|
|-7-------------------------------3-------x-x---x-0-------x-x---x-|
|-7-------------------------------3-------x-x---x-0-------x-x---x-|


|-----------------------------------------------------------------|
|-----------------------------------------------------------------|
|-----------------------------------------------------------------|
|-7-------------------------------3-------x-x---x-0---------------|
|-7-------------------------------3-------x-x---x-0---------------|
|-7-------------------------------3-------x-x---x-0---------------|
Acordes para:
    Composição: Linkin ParkColaboração e revisão:
    • Douglas Felipe

    0 comentários

      mostrar mais comentários

      Conseguiu tocar?

      2tocaram0ainda não

      Grave um vídeo tocando By Myself e mande pra gente!

      00:00 / 00:00
      outros vídeos desta música
      repetirqualidadeautomática
      Outro vídeos desta música
        00:00 / 00:00
        automática
        OK