Cifra Club

Faint

Linkin Park

Tab de baixo: Principal
exibições 19.170
Turn your E string into a C#

Instrumental Parts
G :---------------------------------------------------------------
D :---------------------------------------------------------------
A :---------------------------------0-0-0-0-0-0-0-0---------------
C#:-0-0-0-0-0-0-0-0-3-3-3-3-3-3-3-3-----------------5-5-5-7---3-3-

Verses
G :----------------------------------------------------------------
D :----------------------------------------------------------------
A :--------------------------------------------------0-0----2-2----
C#:-0--------------0----------------0------------------------------

Chorus
G :---------------------------------------------------------------
D :---------------------------------------------------------------
A :---------------------------------0-0-0-0-0-0-0-0---------------
C#:-0-0-0-0-0-0-0-0-3-3-3-3-3-3-3-3-----------------5-5-5-7---3-3-

G :---------------------------------------------------------------------------------
D :---------------------------------------------------------------------------------
A :---------------------------------0-0-0-0-0-0-0-0---------------------------------
C#:-0-0-0-0-0-0-0-0-3-3-3-3-3-3-3-3-----------------5-5-5-7---3-3---3-3-3-3-3-3-3-3-

Bridge
G :-----------------------------|X4
D :-----------------------------|X4
A :-----------------------------|X4
C#:-0-7-3-2-3-2---00-7-3-2-3-2--|X4

Last Chorus
G :---------------------------------------------------------------|X3
D :---------------------------------------------------------------|X3
A :---------------------------------0-0-0-0-0-0-0-0---------------|X3
C#:-0-0-0-0-0-0-0-0-3-3-3-3-3-3-3-3-----------------5-5-5-7---3-3-|X3

G :---------------------------------------------------------------------------------
D :---------------------------------------------------------------------------------
A :---------------------------------0-0-0-0-0-0-0-0---------------------------------
C#:-0-0-0-0-0-0-0-0-3-3-3-3-3-3-3-3-----------------5-5-5-7---3-3---3-3-3-3-3-1-1-1-




_______________________________________________________
Contribuição: Gabriel Fernandes do Nascimento(gabrielonline@globo.com)

0 comentários

    mostrar mais comentários

    Conseguiu tocar?

    3tocaram0ainda não

    Grave um vídeo tocando Faint e mande pra gente!

    00:00 / 00:00
    outros vídeos desta música
    repetirqualidadeautomática
    Outro vídeos desta música
      00:00 / 00:00
      automática
      OK