Cifra Club

Numb

Linkin Park

Cifra: Principal
exibições 1.088.903
Tom: A#
Afinação: Db  Ab  Db  Gb  Bb  Eb

[Intro]  G5  Eb5  Bb5  F5

E|---0---2----5--4------0---5--4--0--------------------|
B|-2---2--------------2---2----------------------------|
G|-----------------------------------------------------|  (2x)
D|-----------------------------------------------------|
A|-----------------------------------------------------|
E|-----------------------------------------------------|

E|---0---2---------------------------------------------|
B|-2---2-----------------------------------------------|
G|-----------------------------------------------------|
D|-----------------------------------------------------|
A|-----------------------------------------------------|
E|-----------------------------------------------------|


[Primeira Parte]

Gm
   I'm tired of being 
          Eb
What you want me to be
 Bb
Feeling so faithless 
     F
Lost under the surface
Gm
   I don't know what 
          Eb
You're expecting of me
    Bb
Put under the pressure 
    F                Eb
Of walking in your shoes

[Riff das estrofes]

E|-------10--------------------------------------------|
B|---8---------8---8-----------------------------------|
G|-7---7---------7-------------------------------------|
D|-----------------------------------------------------|
A|-----------------------------------------------------|
E|-----------------------------------------------------|

[Segunda Parte]
                         
(Caught in the undertow
      F
Just caught in the undertow)
        Gm
Every step that I take 
     Bb                Eb
Is another mistake to you
                        
(Caught in the undertow
      F
Just caught in the undertow)


[Refrão]

G5              Eb5
I've become so numb
                   Bb5
I can't feel you there
                F5
I've become so tired
               G5
So much more aware
               Eb5
I'm becoming this
               Bb5
All I want to do
                 F5
Is be more like me
                  Gm
And be less like you


[Terceira Parte]
               
Can't you see 
              Eb
That you're smothering me?
 Bb
Holding too tightly
   F
Afraid to lose control
Gm
   'Cause everything that 
      Eb
You thought I would be
     Bb
Has fallen apart 
 F                 Eb
Right in front of you


[Quarta Parte]
                         
(Caught in the undertow
      F
Just caught in the undertow)
        Gm
Every step that I take 
     Bb                Eb
Is another mistake to you
                        
(Caught in the undertow
      F
Just caught in the undertow)


[Refrão]

G5              Eb5
I've become so numb
                   Bb5
I can't feel you there
                F5
I've become so tired
               G5
So much more aware
               Eb5
I'm becoming this
               Bb5
All I want to do
                 F5
Is be more like me
                  Eb5
And be less like you


[Ponte]

        F5
And I know
      G5  A5  Bb5  D5    Eb5
I may end up fai__ling, too
        F5           D5
But I know you were just like me

With someone disappointed in you


[Refrão]

G5              Eb5
I've become so numb
                   Bb5
I can't feel you there
                F5
I've become so tired
               G5
So much more aware
               Eb5
I'm becoming this
               Bb5
All I want to do
                 F5
Is be more like me

And be less like you

G5              Eb5
I've become so numb
                   Bb5
I can't feel you there
                    
(I'm tired of being 
          F5
What you want me to be)
G5              Eb5
I've become so numb
                   Bb5
I can't feel you there
                    
(I'm tired of being 
          F5
What you want me to be)
Acordes para:

    0 comentários

      mostrar mais comentários

      Conseguiu tocar?

      200tocaram1ainda não

      Grave um vídeo tocando Numb e mande pra gente!

      00:00 / 00:00
      outros vídeos desta música
      repetirqualidadeautomática
      Outro vídeos desta música
        00:00 / 00:00
        automática
        Capítulos
        • Tocando a música
        • Apresentação / Equipamentos
        • Afinação Drop Bb
        • Configuração do pedal
        • Acordes Introdução
        • Tocando Introdução
        • Riff da introdução
        • Base da introdução
        • Tocando Segunda Parte
        • Riff 1 - Estrofes
        • Dicas Repetição
        • Acordes da ponte
        • Tocando ponte
        • Base da ponte
        • Encerramento
        OK