Cifra Club

Numb

Linkin Park

Tab de baixo: Principal
exibições 32.210
Afinação com 1/2 abaixo

Intro (begin at 0:13)
F#|-------|-------|-------|-------|
C#|-------|-------|-------|-----7-|
G#|-------|-------|---1---|-------|
C#|---5---|---1---|-------|-3^^---|

1= Pre-chorus
F#|-------|-------|---3---|-------|
C#|---5---|---1---|-------|---3---|  2x
G#|-------|-------|-------|-------|   
C#|-------|-------|-------|-------|

Nessa parte do pre-chorus o baixo toca junto com a guitarra assim

F#|---------|---------|---------|---------|---------|--------|
C#|--1^^-5--|--3^^-7--|--5^^-7--|--8^-3^--|--1^^-5--|--3^^^--|
G#|---------|---------|---------|---------|---------|--------|
C#|---------|---------|---------|---------|---------|--------|

Chorus

F#|------|-------|-------|-------|-------|-------|-------|--------|
C#|------|-------|-------|-------|-------|-------|-------|-----7--| 
G#|------|-------|---1---|-------|-------|-------|---1---|--------|
C#|--5---|---1---|-------|-3^^-0-|---5---|---1---|-------|-3^^----|

2= Pre-Chorus

F#|-------|-------|---3---|-------|
C#|---5---|---1---|-------|---3---|  2x
G#|-------|-------|-------|-------|   
C#|-------|-------|-------|-------|

F#|---------|---------|---------|---------|---------|---------|--------|---------|
C#|--1^^-5--|--3^^-7--|--5^^-7--|--8^-3^--|--1^^-5--|--3^^-7--|--5^^7--|--8^-----|
G#|---------|---------|---------|---------|---------|---------|--------|---------|
C#|---------|---------|---------|---------|---------|---------|--------|-----3^--|

Chorus

F#|------|-------|-------|--------|-------|-------|-------|--------|
C#|------|-------|-------|--------|-------|-------|-------|--------| 
G#|------|-------|---1---|--------|-------|-------|---1---|--------|
C#|--5---|---1---|-------|-3^^-0--|---5---|---1---|-------|-3^^-0--|

Bridge

F#|-------|-------|--------|--------|-------|--------|-------|-------|
C#|-------|-------|--------|--------|-------|--------|-------|-------|
G#|-------|-------|--------|--1-----|-------|--------|-------|-------|
C#|---1---|---3---|--5--7--|-----3--|---1---|---3----|---0---|---0---|

F#|-------------|-------|-------|-------|---------|-------|-------|-----------|
C#|-------------|-------|-------|-------|---------|-------|-------|-----------|
G#|-3<5^^-3^^-5-|-------|-------|---1---|---------|-------|-------|--1^^^-----|
C#|-------------|---5---|---1---|-------|--3^^-0--|---5---|---1---|--------3--|

F#|--------------|-------|-------|-------|---------|
C#|--------------|-------|-------|-------|---------|
G#|--3^^-----3^--|-------|-------|---1---|---------|
C#|------3^^-----|---5---|---1---|-------|--3^^-0--|

F#|-------|-------|-------|---------|
C#|-------|-------|-------|---------|
G#|-------|-------|---1---|---------|
C#|---5---|---1---|-------|--3^^-0--|
Colaboração e revisão:
  • David Oliveira

0 comentários

    mostrar mais comentários

    Conseguiu tocar?

    1tocaram1ainda não

    Grave um vídeo tocando Numb e mande pra gente!

    00:00 / 00:00
    outros vídeos desta música
    repetirqualidadeautomática
    Outro vídeos desta música
      00:00 / 00:00
      automática
      OK