Cifra Club

Aprenda

Somewhere I Belong

Linkin Park

Cifra: Principal (violão e guitarra)
Tom: Db (forma dos acordes no tom de D) Afinação: Eb Ab Db Gb Bb Eb
Introdução – Parte 1:

Eb|---------5------------------------------------------|
Bb|----7--7----7---------------------------------------|
Gb|-4--------------------------------------------------|  (8x)
Db|----------------------------------------------------|
Ab|----------------------------------------------------|
Eb|----------------------------------------------------|


Introdução – Parte 2: B5/F#  D5/A  G5  E5
                      B5/F#  D5/A  A5  E5

Eb|----------------------------------------------------|
Bb|----------------------------------------------------|
Gb|-8-8-8-8-8-8-8-8-9-9-9-9-9-9-9-9--------------------|
Db|----------------------------------------------------|
Ab|-6-6-6-6-6-6-6-6-7-7-7-7-7-7-7-7--------------------|
Eb|----------------------------------------------------|

Eb|----------------------------------------------------|
Bb|----------------------------------------------------|
Gb|-11-11-11-11-11-11-11-11-9-9-9-9-9-9-9-9------------|
Db|----------------------------------------------------|
Ab|-9--9--9--9--9--9--9--9--7-7-7-7-7-7-7-7------------|
Eb|----------------------------------------------------|

Eb|----------------------------------------------------|
Bb|----------------------------------------------------|
Gb|-8-8-8-8-8-8-8-8-9-9-9-9-9-9-9-9--------------------|
Db|----------------------------------------------------|
Ab|-6-6-6-6-6-6-6-6-7-7-7-7-7-7-7-7--------------------|
Eb|----------------------------------------------------|

Eb|----------------------------------------------------|
Bb|----------------------------------------------------|
Gb|-6-6-6-6-6-6-6-6-4-4-4-4-4-4-4-4-4~~----------------|
Db|----------------------------------------------------|
Ab|-4-4-4-4-4-4-4-4-2-2-2-2-2-2-2-2-2~~----------------|
Eb|----------------------------------------------------|


Primeira Parte:

(When this began)
I had nothing to say
And I get lost in the nothingness inside of me

(I was confused)
And I let it all out to find
That I'm not the only person
With these things in mind

(Inside of me)
But all the vacancy the words revealed
Is the only real thing
That I've got left to feel

(Nothing to lose)
Just stuck, hollow and alone
And the fault is my own
And the fault is my own


Primeiro Refrão:
Eb|----------------------------------------------------|
Bb|----------------------------------------------------|
Gb|-8-8-8-8-8-8-8-8-9-9-9-9-9-9-9-9--------------------|
Db|----------------------------------------------------|
Ab|-6-6-6-6-6-6-6-6-7-7-7-7-7-7-7-7--------------------|
Eb|----------------------------------------------------|

Eb|----------------------------------------------------|
Bb|----------------------------------------------------|
Gb|-11-11-11-11-11-11-11-11-9-9-9-9-9-9-9-9------------|
Db|----------------------------------------------------|
Ab|-9--9--9--9--9--9--9--9--7-7-7-7-7-7-7-7------------|
Eb|----------------------------------------------------|

Eb|----------------------------------------------------|
Bb|----------------------------------------------------|
Gb|-8-8-8-8-8-8-8-8-9-9-9-9-9-9-9-9--------------------|
Db|----------------------------------------------------|
Ab|-6-6-6-6-6-6-6-6-7-7-7-7-7-7-7-7--------------------|
Eb|----------------------------------------------------|

Eb|----------------------------------------------------|
Bb|----------------------------------------------------|
Gb|-11-11-11-11-11-11-11-11-9-9-9-9-9-9-9-9------------|
Db|----------------------------------------------------|
Ab|-9--9--9--9--9--9--9--9--7-7-7-7-7-7-7-7------------|
Eb|----------------------------------------------------|

Eb|----------------------------------------------------|
Bb|----------------------------------------------------|
Gb|-8-8-8-8-8-8-8-8-9-9-9-9-9-9-9-9--------------------|
Db|----------------------------------------------------|
Ab|-6-6-6-6-6-6-6-6-7-7-7-7-7-7-7-7--------------------|
Eb|----------------------------------------------------|

Eb|----------------------------------------------------|
Bb|----------------------------------------------------|
Gb|-11-11-11-11-11-11-11-11-9-9-9-9-9-9-9-9------------|
Db|----------------------------------------------------|
Ab|-9--9--9--9--9--9--9--9--7-7-7-7-7-7-7-7------------|
Eb|----------------------------------------------------|

Eb|----------------------------------------------------|
Bb|----------------------------------------------------|
Gb|-8-8-8-8-8-8-8-8-9-9-9-9-9-9-9-9--------------------|
Db|----------------------------------------------------|
Ab|-6-6-6-6-6-6-6-6-7-7-7-7-7-7-7-7--------------------|
Eb|----------------------------------------------------|

Eb|----------------------------------------------------|
Bb|----------------------------------------------------|
Gb|-6-6-6-6-6-6-6-6-4-4-4-4-4-4-4-4-4~~----------------|
Db|----------------------------------------------------|
Ab|-4-4-4-4-4-4-4-4-2-2-2-2-2-2-2-2-2~~----------------|
Eb|----------------------------------------------------|


         B5/F#         D5/A
I wanna heal, I wanna feel
         G5               E5
What I thought was never real
         B5/F#         D5/A              A5
I wanna let go of the pain I've held so long
                E5
(Erase all the pain till it's gone)
         B5/F#         D5/A
I wanna heal, I wanna feel
           G5                E5
Like I'm close to something real
         B5/F#               D5/A        A5
I wanna find something I've wanted all along
 E5
Somewhere I belong


Segunda Parte:

And I've got nothing to say
I can't believe
I didn't fall right down on my face

(I was confused)
Looking everywhere only to find
That it's not the way
I had imagined it all in my mind

(So what am I?)
What do I have but negativity?
'Cause I can't justify the way
Everyone is looking at me

(Nothing to lose)
Nothing to gain, hollow and alone
And the fault is my own
And the fault is my own


Segundo Refrão:
Eb|----------------------------------------------------|
Bb|----------------------------------------------------|
Gb|-8-8-8-8-8-8-8-8-9-9-9-9-9-9-9-9--------------------|
Db|----------------------------------------------------|
Ab|-6-6-6-6-6-6-6-6-7-7-7-7-7-7-7-7--------------------|
Eb|----------------------------------------------------|

Eb|----------------------------------------------------|
Bb|----------------------------------------------------|
Gb|-11-11-11-11-11-11-11-11-9-9-9-9-9-9-9-9------------|
Db|----------------------------------------------------|
Ab|-9--9--9--9--9--9--9--9--7-7-7-7-7-7-7-7------------|
Eb|----------------------------------------------------|

Eb|----------------------------------------------------|
Bb|----------------------------------------------------|
Gb|-8-8-8-8-8-8-8-8-9-9-9-9-9-9-9-9--------------------|
Db|----------------------------------------------------|
Ab|-6-6-6-6-6-6-6-6-7-7-7-7-7-7-7-7--------------------|
Eb|----------------------------------------------------|

Eb|----------------------------------------------------|
Bb|----------------------------------------------------|
Gb|-11-11-11-11-11-11-11-11-9-9-9-9-9-9-9-9------------|
Db|----------------------------------------------------|
Ab|-9--9--9--9--9--9--9--9--7-7-7-7-7-7-7-7------------|
Eb|----------------------------------------------------|

Eb|----------------------------------------------------|
Bb|----------------------------------------------------|
Gb|-8-8-8-8-8-8-8-8-9-9-9-9-9-9-9-9--------------------|
Db|----------------------------------------------------|
Ab|-6-6-6-6-6-6-6-6-7-7-7-7-7-7-7-7--------------------|
Eb|----------------------------------------------------|

Eb|----------------------------------------------------|
Bb|----------------------------------------------------|
Gb|-11-11-11-11-11-11-11-11-9-9-9-9-9-9-9-9------------|
Db|----------------------------------------------------|
Ab|-9--9--9--9--9--9--9--9--7-7-7-7-7-7-7-7------------|
Eb|----------------------------------------------------|

Eb|----------------------------------------------------|
Bb|----------------------------------------------------|
Gb|-8-8-8-8-8-8-8-8-9-9-9-9-9-9-9-9--------------------|
Db|----------------------------------------------------|
Ab|-6-6-6-6-6-6-6-6-7-7-7-7-7-7-7-7--------------------|
Eb|----------------------------------------------------|

Eb|----------------------------------------------------|
Bb|----------------------------------------------------|
Gb|-6-6-6-6-6-6-6-6-4-4-4-4-4-4-4-4--------------------|
Db|----------------------------------------------------|
Ab|-4-4-4-4-4-4-4-4-2-2-2-2-2-2-2-2--------------------|
Eb|----------------------------------------------------|


         B5/F#         D5/A
I wanna heal, I wanna feel
         G5               E5
What I thought was never real
         B5/F#         D5/A              A5
I wanna let go of the pain I've held so long
                E5
(Erase all the pain till it's gone)
         B5/F#         D5/A
I wanna heal, I wanna feel
           G5                E5
Like I'm close to something real
         B5/F#               D5/A        A5
I wanna find something I've wanted all along
 E5
Somewhere I belong


Terceira Parte:
Eb|------------------------------------------|
Bb|------------------------------------------|
Gb|-11-11-11--11-11-11-11--------11-11-11-11-|
Db|------------------------5--5--------------|
Ab|-9--9--9---9--9--9--9---5--5--9--9--9--9--|
Eb|------------------------3--3--------------|

Eb|------------------------------------------|
Bb|------------------------------------------|
Gb|-------11-11-11-11--------6/7--6----------|
Db|-7--7---------------2--2------------------|
Ab|-7--7--9--9--9--9---2--2--4/5--4----------|
Eb|-5--5---------------0--0------------------|

Eb|------------------------------------------|
Bb|------------------------------------------|
Gb|-11-11-11--11-11-11-11--------11-11-11-11-|
Db|------------------------5--5--------------|
Ab|-9--9--9---9--9--9--9---5--5--9--9--9--9--|
Eb|------------------------3--3--------------|

Eb|------------------------------------------|
Bb|------------------------------------------|
Gb|-------11-11-11-11--------6/7--6----------|
Db|-7--7---------------2--2------------------|
Ab|-7--7--9--9--9--9---2--2--4/5--4----------|
Eb|-5--5---------------0--0------------------|

Eb|------------------------------------------|
Bb|------------------------------------------|
Gb|-11-11-11--11-11-11-11--------14-14-14-14-|
Db|------------------------5--5--------------|
Ab|-9--9--9---9--9--9--9---5--5--12-12-12-12-|
Eb|------------------------3--3--------------|

Eb|------------------------------------------|
Bb|------------------------------------------|
Gb|-------11-11-11-11--------6/7--6----------|
Db|-7--7---------------2--2------------------|
Ab|-7--7--9--9--9--9---2--2--4/5--4----------|
Eb|-5--5---------------0--0------------------|

Eb|------------------------------------------|
Bb|------------------------------------------|
Gb|-11-11-11--11-11-11-11--------11-11-11-11-|
Db|------------------------5--5--------------|
Ab|-9--9--9---9--9--9--9---5--5--9--9--9--9--|
Eb|------------------------3--3--------------|

Eb|------------------------------------------|
Bb|------------------------------------------|
Gb|-11\9--9\7--7--6/7\--4~~------------------|
Db|------------------------------------------|
Ab|-9-\7--7\5--5--4/7\--2~~------------------|
Eb|------------------------------------------|


B5/F#         G5
      I will never know
   A5
Myself until I
 E5           B5/F#
Do this on my own
            G5
And I will never feel
A5
Anything else
   E5                   B5/F#
Until my wounds are healed
        G5
I will never be
A5                 E5               B5/F#
Anything 'till I break away from me
         G5
I will break away
      A5     E5
I'll find myself today


Terceiro Refrão:
Eb|----------------------------------------------------|
Bb|----------------------------------------------------|
Gb|-8-8-8-8-8-8-8-8-9-9-9-9-9-9-9-9--------------------|
Db|----------------------------------------------------|
Ab|-6-6-6-6-6-6-6-6-7-7-7-7-7-7-7-7--------------------|
Eb|----------------------------------------------------|

Eb|----------------------------------------------------|
Bb|----------------------------------------------------|
Gb|-11-11-11-11-11-11-11-11-9-9-9-9-9-9-9-9------------|
Db|----------------------------------------------------|
Ab|-9--9--9--9--9--9--9--9--7-7-7-7-7-7-7-7------------|
Eb|----------------------------------------------------|

Eb|----------------------------------------------------|
Bb|----------------------------------------------------|
Gb|-8-8-8-8-8-8-8-8-9-9-9-9-9-9-9-9--------------------|
Db|----------------------------------------------------|
Ab|-6-6-6-6-6-6-6-6-7-7-7-7-7-7-7-7--------------------|
Eb|----------------------------------------------------|

Eb|----------------------------------------------------|
Bb|----------------------------------------------------|
Gb|-11-11-11-11-11-11-11-11-9-9-9-9-9-9-9-9------------|
Db|----------------------------------------------------|
Ab|-9--9--9--9--9--9--9--9--7-7-7-7-7-7-7-7------------|
Eb|----------------------------------------------------|

Eb|----------------------------------------------------|
Bb|----------------------------------------------------|
Gb|-8-8-8-8-8-8-8-8-9-9-9-9-9-9-9-9--------------------|
Db|----------------------------------------------------|
Ab|-6-6-6-6-6-6-6-6-7-7-7-7-7-7-7-7--------------------|
Eb|----------------------------------------------------|

Eb|----------------------------------------------------|
Bb|----------------------------------------------------|
Gb|-11-11-11-11-11-11-11-11-9-9-9-9-9-9-9-9------------|
Db|----------------------------------------------------|
Ab|-9--9--9--9--9--9--9--9--7-7-7-7-7-7-7-7------------|
Eb|----------------------------------------------------|

Eb|----------------------------------------------------|
Bb|----------------------------------------------------|
Gb|-8-8-8-8-8-8-8-8-9-9-9-9-9-9-9-9--------------------|
Db|----------------------------------------------------|
Ab|-6-6-6-6-6-6-6-6-7-7-7-7-7-7-7-7--------------------|
Eb|----------------------------------------------------|

Eb|----------------------------------------------------|
Bb|----------------------------------------------------|
Gb|-11-11-11-11-11-11-11-11-9-9-9-9-9-9-9-9------------|
Db|----------------------------------------------------|
Ab|-9--9--9--9--9--9--9--9--7-7-7-7-7-7-7-7------------|
Eb|----------------------------------------------------|


         B5/F#         D5/A
I wanna heal, I wanna feel
         G5               E5
What I thought was never real
         B5/F#         D5/A              A5
I wanna let go of the pain I've held so long
                E5
(Erase all the pain till it's gone)
         B5/F#         D5/A
I wanna heal, I wanna feel
           G5                E5
Like I'm close to something real
         B5/F#               D5/A        A5
I wanna find something I've wanted all along
 E5            B5/F#
Somewhere I belong


Final:
Eb|----------------------------------------------------|
Bb|----------------------------------------------------|
Gb|-8-8-8-8-8-8-8-8-9-9-9-9-9-9-9-9--------------------|
Db|----------------------------------------------------|
Ab|-6-6-6-6-6-6-6-6-7-7-7-7-7-7-7-7--------------------|
Eb|----------------------------------------------------|

Eb|----------------------------------------------------|
Bb|----------------------------------------------------|
Gb|-11-11-11-11-11-11-11-11-9-9-9-9-9-9-9-9------------|
Db|----------------------------------------------------|
Ab|-9--9--9--9--9--9--9--9--7-7-7-7-7-7-7-7------------|
Eb|----------------------------------------------------|

Eb|----------------------------------------------------|
Bb|----------------------------------------------------|
Gb|-8-8-8-8-8-8-8-8-9-9-9-9-9-9-9-9--------------------|
Db|----------------------------------------------------|
Ab|-6-6-6-6-6-6-6-6-7-7-7-7-7-7-7-7--------------------|
Eb|----------------------------------------------------|

Eb|----------------------------------------------------|
Bb|----------------------------------------------------|
Gb|-6-6-6-6-6-6-6-6-4-4-4-4-4-4-4-4--------------------|
Db|----------------------------------------------------|
Ab|-4-4-4-4-4-4-4-4-2-2-2-2-2-2-2-2--------------------|
Eb|----------------------------------------------------|


         D5/A          G5
I wanna heal, I wanna feel
          E5            B5/F#
Like I'm somewhere I belong

         D5/A          A5
I wanna heal, I wanna feel
          E5            B5/F#
Like I'm somewhere I belong

Somewhere I belong

Somewhere I belong
Composição de Brad Delson / Chester Bennington / Dave Phoenix Farrell / Joe Hahn / Mike Shinoda / Rob Bourdon
Colaboração e revisão:
232.047 exibições
    • ½ Tom
    • A
    • Bb
    • B
    • C
    • Db
    • D
    • Eb
    • E
    • F
    • F#
    • G
    • Ab
  • Adicionar à lista

    0 comentários

    Mostrar mais comentários

    Conseguiu tocar?

    23 Tocaram 0 Ainda não

    Grave um vídeo tocando Somewhere I Belong e mande pra gente!

    00:00 / 00:00
    outros vídeos desta música
    repetir qualidade Automático
    Outros vídeos desta música
    00:00 / 00:00
    Automático
    Capítulos
    • Início
    • Afinação
    • Tocando a música
    • Tocando Introdução - Parte 1
    • Ensinando Introdução - Parte 1
    • Acordes da Parte 2 da Introdução
    • Tocando Introdução - Parte 2
    • Ensinando Introdução - Guitarra Base
    • Ensinando Introdução - Guitarra Solo
    • Tocando Primeira Parte
    • Ensinando Primeira Parte
    • Tocando Refrão
    • Ensinando Riff do Primeiro Refrão
    • Tocando Segunda Parte
    • Tocando Segundo Refrão e Terceira Parte
    • Ensinando Terceira Parte - Guitarra Base
    • Ensinando Terceira Parte - Guitarra Solo
    • Tocando Terceiro Refrão
    • Ensinando Terceiro Refrão - Guitarra Solo
    • Tocando Final
    • Ensinando Final
    • Encerramento

    Cifra Club Pro

    Aproveite o Cifra Club com benefícios exclusivos e sem anúncios
    Cifra Club Pro
    Aproveite o Cifra Club com benefícios exclusivos e sem anúncios
    OK