Cifra Club

Aprenda

Amor de Outros Carnavais

Lisbela

Cifra: Principal (violão e guitarra)
tom: G
Introdução: C7M(9) (2x)

Riff 1:
Eb|--2-0--------2-0------|
Bb|-------3---------3----|
Gb|----------4-----------|
Db|----------------------|
Ab|----------------------|
Eb|----------------------|

Riff 2:
Eb|----------------------|
Bb|----3h5-3-------------|
Gb|----4------4--4h5--5--|
Db|-----------5----------|
Ab|----------------------|
Eb|----------------------|

G           B7
Encontrar você
         Em   G7
Aqui, de novo
        C7M(9)
Prometo não chorar
     D
Se você não se despedir


G          B7
Encontrar o amor
         Em         G7
Onde ele se escondeu
            C7M(9)          Cm
Sei que ele não partiu de mim
          Bm (Riff 1)
Nem de você


       Cm (Riff 2)
Quanto tempo faz?
    Bm (Riff 1)
Não sei mais
   C
Vou voltar atrás
D7
Amor de outros carnavais


Interlúdio:
Eb|-----------------------------------------------------------------------------------------|
Bb|----3----3-----3----3------7----7----7----7------5----5----5----5------7----7----7----7--|
Gb|----4----4-----4----4------8----8----8----8------5----5----5----5------------------------| (2X)
Db|--5----------5-----------9----------9----------7---------7-------------7----7----7----7--|
Ab|-------5----------5-----------9---------9-----------7---------7------5----0----5----0----|
Eb|-----------------------------------------------------------------------------------------|


G
Diz pra mim toda verdade
B7
Que também sentiu saudades
Am7            D
Tudo bem, não há mal nenhum em ser de alguém


G
Faço o meu desejo
B7                       Am7
Da tua vida o meu enredo campeão
D7                            Eb°
Com as batidas do meu coração


     Em7
Verdadeiro amor
        C
Deixo a chuva cair
  D7                Eb°
É tempo de reconstruir
         Em7
Te trago essa flor
         C
Pra enfeitar e marcar
   D7
As cores do teu caminhar



G           B7
Encontrar você
         Em        G7
"Olá, ta tudo bem"
         C7M(9)
Quando você partiu
   Cm
Eu não queria mais ninguém


G             B7
E até me entreguei
         Em       G7
Tentei recomeçar
   C7M(9)           Cm   G   Bb°
De nada iria adiantar
Em
Pra ver se a história tem final feliz


Interlúdio: Em   Em Eb°/F#

Eb|----------7----------5-----------------7------------------|
Bb|------8-----8----------7----------8------8----------10----|
Gb|----9---9-----------------------9---9------------------8--|
Db|------------------7-----------------------------10--------|
Ab|--7-------------6------------7----------------9-----------|
Eb|----------------------------------------------------------|


C        Bm
Deixar o acaso nos mostrar
Am7                G
Onde tudo vai parar
C          Bm
Enquanto o tempo não nos separar
Am7                        D7
Vou te coroar rainha do meu lar


G      B7            Am7  D
Uh, saudade que não vai embora
G   B7         Am7
Lá fora o frio não demora
           Cm          G   B7  Am7
Te vejo em outros carnavais
           Cm          G
Te vejo em outros carnavais

B7 Am7  D7
Composição de Allan Vieira
Colaboração e revisão:
  • Bruna
1.218 exibições
    • ½ Tom
    • A
    • Bb
    • B
    • C
    • Db
    • D
    • Eb
    • E
    • F
    • F#
    • G
    • Ab
  • Adicionar à lista

    0 comentários

    Ver todos os comentários

    Conseguiu tocar?

    0 Tocaram 0 Ainda não

    Grave um vídeo tocando Amor de Outros Carnavais e nos envie!

    00:00 / 00:00
    outros vídeos desta música
    repetir qualidade Automático
    Outros vídeos desta música
    00:00 / 00:00
    Automático

    Cifra Club Pro

    Aproveite o Cifra Club com benefícios exclusivos e sem anúncios
    Cifra Club Pro
    Aproveite o Cifra Club com benefícios exclusivos e sem anúncios
    OK