Cifra Club

Perfect One

LIT

Cifra: Principal (violão e guitarra)
Selo Cifra Club: esta cifra foi revisada para atender aos critérios oficiais da nossa Equipe de Qualidade.
tom: C#m
INTRO
E|-----0------0----0--0----------------------0------0----0--0-------------|
B|-----0---/2----0----0----------------------0---/2----0----0-------------|
G|--------------------1---1h2p1---1/4~~-1-2-----------------1---1h2p1~~~~-|
D|-2------------------2-------------------------------------2-------------|
A|-0------------------2-------------------------------------2-------------|
E|--------------------0-------------------------------------0-------------|

VERSE
E|-0--------0--------|
B|-2--------0--------|
G|-2--------1--------|
D|-2--------2--------|
A|-0--------2--------|
E|----------0--------|

CHORUS
E|---------------------------------------|
B|-------------------2-------------------|
G|-1-----------------2--------1----6r4~~-|
D|-2--------4--------2--------2----------|
A|-2--------4--------0--------2----------|
E|-0--------2-----------------0----------|

E|--------------------------------------------|
B|-------------------2------------------------|
G|-1-----------------2------------------------|
D|-2--------4--------2--------6-6-6-6-6-6-6-6-|
A|-2--------4--------0--------6-6-6-6-6-6-6-6-|
E|-0--------2-----------------4-4-4-4-4-4-4-4-|

BRIDGE
E|-----------------------------------|
B|-----------------------------------|
G|-6-----------------5-5-5-5---------|
D|-6--------7--------5-5-5-5-6-6-6-6-|
A|-4--------7--------3-3-3-3-6-6-6-6-|
E|----------5----------------4-4-4-4-|


CHORUS 2 - Same


VERSE 2 - Same


G  O - Rhythm plays bridge

Lead
E|-------------------------------------|
B|-------------------------------------|
G|-6-6-6/8-9~~--6/8-9~~--9\8/9-9-9-8-8-|
D|-------------------------------------|
A|-4-4-4/6-7~~--4/6-7~~--7\6/7-7-7-6-6-|
E|-------------------------------------|

E|-------------------------------------|
B|-------------------------------------|
G|-6-6-6/8-9~~--6/8-9~~--9\8/9-9-9-8-8-|
D|-------------------------------------|
A|-4-4-4/6-7~~--4/6-7~~--7\6/7-7-7-6-6-|
E|-------------------------------------|

E|------------------------------------------------------------|
B|------------------------------------------------------------|
G|-6-6-6/9-14~~--6/9-14~~--14-14\13/14-14-14-13-13-14~~~~~~~~-|
D|------------------------------------------------------------|
A|-4-4-4/7-12~~--4/7-12~~--12-12\11/12-12-12-11-11-12~~~~~~~~-|
E|------------------------------------------------------------|


CHORUS 3/OUTRO
                                        x3
E|---------------------------------------|
B|---------------------------------------|
G|-------------------2-------------------|
D|-2--------4--------2--------2----6r4~~-|
A|-2--------4--------0--------2----------|
E|-0--------2-----------------0----------|

E|--------------------------------------------|
B|--------------------------------------------|
G|-------------------2------------------------|
D|-2--------4--------2--------6-6-6-6-6-6-6-6-|
A|-2--------4--------0--------6-6-6-6-6-6-6-6-|
E|-0--------2-----------------4-4-4-4-4-4-4-4-|

Lead fill
E|-------------------------------|
B|-------------------------------|
Gb|-9-9-9\8-8-8-8\6-6-6-6\4-4-4-4-|
D|-------------------------------|
Ab|-7-7-7\6-6-6-6\4-4-4-4\2-2-2-2-|
Eb|-------------------------------|

End on
E|-0--------|
B|-2--------|
G|-2--------|
D|-2--------|
A|-0--------|
E|----------|
00:00 / 00:00
Outros vídeos desta música
Repetir
Outros vídeos desta música
17 exibições
    • ½ Tom
    • Am
    • Bbm
    • Bm
    • Cm
    • C#m
    • Dm
    • Ebm
    • Em
    • Fm
    • F#m
    • Gm
    • G#m
  • Adicionar à lista

Afinação da cifra

Afinador online

    0 comentários

    Ver todos os comentários

    Entre para o Cifra Club PRO

    Tenha acesso a benefícios exclusivos no App e no Site

    • Chega de anúncios

    • Mais recursos no app do Afinador

    • Atendimento Prioritário

    • Aumente seu limite de lista

    • Ajude a produzir mais conteúdo

    00:00 / 00:00

    Cifra Club Pro

    Aproveite o Cifra Club com benefícios exclusivos e sem anúncios
    Cifra Club Pro
    Aproveite o Cifra Club com benefícios exclusivos e sem anúncios
    OK