Cifra Club

Like A Soldier

Live

Cifra: Versão 2 (violão e guitarra)
Selo Cifra Club: esta cifra foi revisada para atender aos critérios oficiais da nossa Equipe de Qualidade.
tom: C
FIGUD  1
E|-------------------------------------------| :|
B|-------------------------------------------| :|
G|--------------5------------7---------7-----| :|
D|-----7------5-----------7-------5h7----7---| :|
A|---7---7--3-----3--3/5--------5------------| :|
E|-5-----------------------------------------| :|


I just come down from the mountain a happy man
turned on the television, should of chewed off my hand
i'm sick of all the false glory in god we trust
show me one dollar bill that hasn't passed through the cuss

E|--------------------------------------------| :|--5--|
B|--------------------------------------------| :|--5--|
G|------7--------9---------10-----------12----| :|--6--|
D|----7---7----9---9----10----10-----12----12-| :|--7--|
A|--5--------7--------8-----------10----------| :|--7--|
E|--------------------------------------------| :|--5--|

and if you break my will
i will come back again
to destroy everything you stood for
oh
Outros vídeos desta música
    1 exibições
      • ½ Tom
      • A
      • Bb
      • B
      • C
      • Db
      • D
      • Eb
      • E
      • F
      • F#
      • G
      • Ab
    • Adicionar à lista

    Afinação da cifra

    Afinador online

      0 comentários

      Ver todos os comentários

      Entre para o Cifra Club PRO

      Tenha acesso a benefícios exclusivos no App e no Site

      • Chega de anúncios

      • Badges exclusivas

      • Mais recursos no app do Afinador

      • Atendimento Prioritário

      • Aumente seu limite de lista

      • Ajude a produzir mais conteúdo

      Cifra Club Pro

      Aproveite o Cifra Club com benefícios exclusivos e sem anúncios
      Cifra Club Pro
      Aproveite o Cifra Club com benefícios exclusivos e sem anúncios
      Ops (: Contenido disponible sólo en portugués.
      OK