Enviar cifraEntrar

Me chama

Lobão

Cifra: Principal
exibições 449.294
Tom: D
Intro: Bm11  A4(9)  A9  (3x)   ( G )

D          D7M(9)   D2(7)          G
 Chove lá fora e aqui, faz tanto frio.
Bm11        A5(9)     G
  Me dá vontade de saber
D         D7M(9)
 Aonde está você.
D2(7)     G
  Me telefona,
Bm11              A5(9)       G
  Me chama, me chama, me chama.

Refrão:
               Bm11
Nem sempre se vê
      A4(9) A9         Bm11  A4(9) A9       Bm11
Lágrima          no escuro, lágrima no escuro
 A4(9) A9   G
Lágrima.

D         D7M(9)      D2(7)
 Tá tudo cinza sem você,
          G
Tá tão vazio.
Bm11        A5(9)         G
 E a noite fica sem por quê...

D         D7M(9)
 Aonde está você.
D2(7)     G
  Me telefona,
Bm11             A5(9)  G
  Me chama, me chama

Refrão 2:
                Bm11   A4(9) A9       Bm11
Nem sempre se vê, mágica        no absurdo,
 A4(9) A9        Bm11
Mágica     no absurdo
 A4(9) A9    G
Mágica.

Solo 2x: D D7M(9) D2(7) G Bm11 A5(9) G

Refrão:
                Bm11   A4(9) A9       Bm11
Nem sempre se vê, mágica        no absurdo,
 A4(9) A9        Bm11
Mágica     no absurdo
 A4(9) A9    G
Mágica.
               Bm11
Nem sempre se vê
      A4(9) A9         Bm11  A4(9) A9       Bm11
Lágrima          no escuro, lágrima no escuro
 A4(9) A9   G
Lágrima.

Violão 2:

Introdução/Refrão:

      G5
E|-3----3-3-----3--3-3--3-3-3-3------------
B|-2----3-3-----3--3-3--3-3-3-3------------
G|-0----0-0-----0--0-0--0-0-0-0------------
D|-0-0--0-0---0-0--0-0--0-0-0-0------------
A|-----------------------------------------
E|-3-3--3-3---3-3--3-3--3-3-3-3------------



Estrofes:

 D5(9)     D7M(2)    D2(7)
E|--------5---------5---------5------------
B|--------5---------5---------5------------
G|-----7--7------6--6------5--5------------
D|---7---------7---------7-----------------
A|-5---------5---------5-------------------
E|-----------------------------------------


 G
E|---------3--3-3-3------------------------
B|---------3--3-3-3------------------------
G|-----0---0--0-0-0------------------------
D|---0-0---0--0-0-0------------------------
A|-2-2--------2-2-2------------------------
E|-3----------3-3-3------------------------


Variação:


 D5(9)               D7M(2)
E|-------0-------------------0-------------
B|-----3----3-3-3----------2----3-3-3------
G|---2------2-2-2--------2------2-2-2------
D|-0--------0-0-0------0--------0-0-0------
A|-----------------------------------------
E|-----------------------------------------


 D2(7)             G
E|-------0-------------------3--3-3-3------
B|-----3----3-3-3------------3--3-3-3------
G|---5------5-5-5--------0---0--0-0-0------
D|-0--------0-0-0------0-0---0--0-0-0------
A|-------------------2-2--------2-2-2------
E|-------------------3----------3-3-3------


  Bm11          A5(9)
E|--------0-0-0-0--------0--0-0-0----------
B|--------3-3-3-3--------0--0-0-0----------
G|-----4--4-4-4-4-----2--2--2-2-2----------
D|---4------4-4-4---2-------2-2-2----------
A|-2--------2-2-2-0---------0-0-0----------
E|-----------------------------------------


      G5
E|-----------------------------------------
B|-2----3-3-----3--3-3--3-3-3-3------------
G|-0----0-0-----0--0-0--0-0-0-0------------
D|-0-0--0-0---0-0--0-0--0-0-0-0------------
A|-----------------------------------------
E|-3-3--3-3---3-3--3-3--3-3-3-3------------



Solo Bandolim:


E|---------------------------------------------------
B|---------------------------------------------------
G|---------------------------------------------------
D|-12-12h14-14-12-14/16-14/16-16\14-12-14-12---------
A|-------------------------------------------15------
E|---------------------------------------------------


E|---------------------------------------------------
B|---------------------------------------------------
G|-14/16-14-12---------------------------------------
D|-------------14/16-14-12---------------------------
A|-------------------------14-12-12-12h14-12---------
E|---------------------------------------------------


E|---------------------------------------------------
B|---------------------------------------------------
G|---------------------------------------------------
D|---------------------------------------------------
A|-14-12---------------------------------------------
E|-------15-14---------------------------------------


E|---------------------------------------------------
B|---------------------------------------------------
G|---------------------------------------------------
D|----------------------------11-11h12-12------------
A|----------------12-12h14-14------------------------
E|-10-12-12/14-14------------------------------------


E|--0--0--0----0--0-0---0----------------------------
B|--0--0--0----0--0-0---0----------------------------
G|-11-11\-9----9--9\7---7----------------------------
D|-12-12\11---11-11\9---9----------------------------
A|---------------------------------------------------
E|---------------------------------------------------


Solo Violão:


E|-10-7----7-----------------------------------------
B|------10---10-7---7--------------------------------
G|----------------9---11\9-7---7---------------------
D|---------------------------9-----------------------
A|---------------------------------------------------
E|---------------------------------------------------


E|---------------------------------------------------
B|---------------------------------------------------
G|-----7h9p7---7-7-9/11~--9\7------------------------
D|-7h9-------9---------------------------------------
A|---------------------------------------------------
E|---------------------------------------------------


E|---------------------------------------------------
B|-12-12-12--10-10-10--7-7-7--5-5-5--3-3-3-----------
G|-11-11-11--9--9--9---7-7-7--4-4-4--2-2-2--4--2--4--
D|------------------------------------------4--2--4--
A|---------------------------------------------------
E|---------------------------------------------------


E|-------10h12-12b13r12p10-12--10-9-9h10p9-----------
B|-10h12-----------------------------------12-10-----
G|---------------------------------------------------
D|---------------------------------------------------
A|---------------------------------------------------
E|---------------------------------------------------
  • 1
  • 2
  • 3
  • 4
  • 5
  • 6
  • 7
  • 8
  • 9
  • 10
  • 11
  • 12
    Acordes para:
      Composição: LobãoColaboração e revisão:

      0 comentários

        mostrar mais comentários

        Conseguiu tocar?

        55tocaram0ainda não

        Grave um vídeo tocando Me chama e mande pra gente!

        00:00 / 00:00
        outros vídeos desta música
        repetirqualidadeautomática
        • automática
        Outro vídeos desta música
          Capítulos
          • Início
          • Dicas: Violão 12 cordas
          • Tocando a música
          • Acordes da Introdução e Refrão
          • Tocando Introdução
          • Ensinando ritmo Introdução e Refrão
          • Ensinando Introdução e Refrão (Violão 2)
          • Acordes da Estrofes
          • Tocando Estrofe
          • Ensinando ritmo das estrofes
          • Ensinando Estrofes (Violão 2)
          • Ensinando Estrofes (Violão 2 - variação)
          • Tocando Solo
          • Ensinando Solo (Bandolim)
          • Ensinando Solo (6 cordas)
          • Encerramento
          00:00 / 00:00
          automática
          • automática
          1 versão de Tab de bateriaexibiçõescontribuições
          2 versões de Guitar Proformatodownloadscontribuição
          1 versão de Partiturasformatodownloadscontribuição
          fecharplay/pause subir/descer velocidade
            acordes
            fechar
            OK
            Feedback