Cifra Club

Aprenda

You're The Reason Why

Lonestar

Cifra: Principal (violão e guitarra)
tom: D
Introdução:

E|-0--2--0--2--0--2--0--0--0--0--0--2--0--2--0--2--0--0--|
B|-3--3--3--3--3--3--3--3--3--3--2--2--2--2--2--2--2--2--|
G|-2--2--2--2--2--2--2--2--2--2--2--2--2--2--2--2--2--2--|
D|-0--0--0--0--0--0--------------0--0--0--0--0--0--------|
A|-------------------------------------------------------|
E|-------------------------------------------------------|

D               Em7
Walking through life with dark clouds above me
G                   D            Dsus    D
I never thought I'd find someone to love me
            Em7
Lost in the crowd, never felt so lonely and
G          Dsus  D
I’m really liv - ing
               C               G
Barely holding onto a dream of what could be

D
It only took one taste of your kiss
Dmaj7
Now I know everything that I missed
G                   Gm
My heart is beating for the first time
D
Anticipating your every touch
Dmaj7
Intoxicating me with your love
    G
And I'm so high
    Gm7
And you're the reason why

Interlúdio
E|-0--2--0--2--0--2--0--0--0--0--0--2--0--2--0--2--0--0--|
B|-3--3--3--3--3--3--3--3--3--3--2--2--2--2--2--2--2--2--|
G|-2--2--2--2--2--2--2--2--2--2--2--2--2--2--2--2--2--2--|
D|-0--0--0--0--0--0--------------0--0--0--0--0--0--------|
A|-------------------------------------------------------|
E|-------------------------------------------------------|

D          Em7
Walking on clouds and finally laughing
G          D                   Dsus  D
Never be - lieved this would ever happen
            Em7
You found a place I never knew existed
G         Dsus  D
Two souls em -  brace
                   C                   G
With no resistance just in time you've saved my life

D
It only took one taste of your kiss
Dmaj7
Now I know everything that I missed
   G                Gm
My heart is beating for the first time
D
Anticipating your every touch
Dmaj7
Intoxicating me with your love
G
And I'm so high
    Gm7               Bm
And you're the reason why
A/C#   D
You’re why

Solo: Bm  A/C#  D  Bm  A  G

D                      Dmaj7
You're the reason why...
D                      Dmaj7
You're the reason why...

D
It only took one taste of your kiss
Dmaj7
Now I know everything that I've missed
   G                Gm (    tacet     )
My heart is beating for the first time
D
Anticipating your every touch
Dmaj7
Intoxicating me with your love
    G
And I'm so high
    Gm7               D    Dmaj7
And you're the reason why
D                       Dmaj7  D
Girl, you’re the reason why
Composição de Lonestar
Colaboração e revisão:
  • Jônatas Lara
15 exibições
    • ½ Tom
    • A
    • Bb
    • B
    • C
    • Db
    • D
    • Eb
    • E
    • F
    • F#
    • G
    • Ab
  • Adicionar à lista

    0 comentários

    Ver todos os comentários

    Conseguiu tocar?

    1 Tocaram 0 Ainda não

    Grave um vídeo tocando You're The Reason Why e nos envie!

    00:00 / 00:00
    outros vídeos desta música
    repetir qualidade Automático
    Outros vídeos desta música
    00:00 / 00:00
    Automático

    Cifra Club Pro

    Aproveite o Cifra Club com benefícios exclusivos e sem anúncios
    Cifra Club Pro
    Aproveite o Cifra Club com benefícios exclusivos e sem anúncios
    OK