Cifra Club

Afición

Los Enemigos

Cifra: Principal (violão e guitarra)
tom: Em

Intro:
E|--------------------------------------------|
B|-----7------7-----------------------6-6-6---|
G|-----7------7--5(b| ubd)-3-5-3--------5-5-5---|
D|-7s9----7s9------------------5-3----4-4-4---|
A|---------------------------------5--5-5-5---|
E|--------------------------------------------|

Estrofa:
E|----------------------------------------------------|
B|----------------------------------------------------|
G|----------------------------------------------------|
D|-----4s5-5-7-7-5-5-7-7-7-7---4s5-5-7-7-5-5-7-7-7-7--|
A|-----2s3-3-3-3-3-3-3-3-3-3---2s3-3-3-3-3-3-3-3-3-3--|
E|----------------------------------------------------|
Despertar de rendición           Gran tormenta estomacal

Ahora viene un punteillo más o menos así:
E|-------------------------------------------|
B|------7----------------------------7--7-7--|
G|------7---5(b| ubd)-3-5-3------------7--7-7--|
D|--7s9-------------------5-3----5s9---------|
A|----------------------------5--------------|
E|-------------------------------------------|

Es tamaña mi afición
Es tamaño su final

Estribillo:
E|-----------------------|
B|-----------------------|
G|-----------------------|
D|--7-7-9-9-7-7-9-9-9-9--|
A|--5-5-5-5-5-5-5-5-5-5--|
E|-----------------------|
Y mira no nos va tan mal

E|-------------------------------------------------------------|
B|------7---------------------------7-------------------6-6-6--|
G|------7--5(b| ubd)-3----------------7--5(bubd)-3--------5-5-5--|
D|--7s9--------------5-3---5----7s9--------------5-3----4-4-4--|
A|-----------------------5-5-------------------------5--5-5-5--|
E|-------------------------3-----------------------------------|
    En la extraña procesión     que discurre por el bar

Estrofa 2:
Recios codos empapaos
recias caras colorás
Recia el alma al pagar
no tan recio es nuestro andar.

Estribillo:

(Solo)

Estrofa 1

Final:
E|--------5(b| ubd)-3---------|
B|-----7------------6-3---6-|
G|-----7----------------5-5-|
D|-7s9--------------------4-|
A|------------------------5-|
E|--------------------------|
Compositor não encontrado.
    • ½ Tom
    • Am
    • Bbm
    • Bm
    • Cm
    • C#m
    • Dm
    • Ebm
    • Em
    • Fm
    • F#m
    • Gm
    • G#m
  • Adicionar à lista

    0 comentários

    Ver todos os comentários

    Conseguiu tocar?

    0 Tocaram 0 Ainda não

    Grave um vídeo tocando Afición e nos envie!

    00:00 / 00:00
    Outros vídeos desta música
    Repetir Qualidade Automático
    Outros vídeos desta música
    00:00 / 00:00
    Automático

    Cifra Club Pro

    Aproveite o Cifra Club com benefícios exclusivos e sem anúncios
    Cifra Club Pro
    Aproveite o Cifra Club com benefícios exclusivos e sem anúncios
    OK