Cifra Club

Complejo

Los Enemigos

Cifra: Principal (violão e guitarra)
tom: A
Intro (los punteos varían según la versión y son orientativos):

    A    D                    B   E            A        E
E|-------------5----8---------------------------------------|
B|--------5/7----7------------------------------------------|
G|-----------------------------4----------------2--------1--|
D|-----------------------------4----------------2--------2--|
A|-----------------------0-0-1-2-------------2--0--------2--|
E|------------------------------------0-2/4--------------0--|

    A    D7                  B   E            A        E
E|---------8-8-8-8-------------------------------------------|
B|---------7-7-7-7-------------------------------------------|
G|---------7-7-7-7-------------4----------------2------------|
D|---------7-7-7-7-------------4----------------0------------|
A|---------5-5-5-5-------0-0-1-2-------------2---------------|
E|------------------------------------0-2/4------------------|



       A                       Riff 1
Me entró un complejo,        |----------------|   Se repite varias
E|----------------| veces a lo largo
D|----------------| de A  canción
complejo con sólo mirarte.   |------------2---|
E|---------2--0---|
      B               E      |--0-2/4---------|
Me entró un complejo

Riff 1      A     E
por tu educación.


    A
Una chica-chica guapa,

      D
chica guapa bastante notable,

        B           E
y yo un muchachote

Riff 1         A  E
sin posición.


-D PETIR INTRO-

        D
No me puedo permitir

                       A
seguir viviendo así contigo.

             D
Y es que aún soy un chavalín

      F#m
sin medios para vivir,

G                E
yo no tengo porvenir.


       A
Me entró un complejo,

   D
complejo con sólo mirarte.

      B               E
Me entró un complejo

Riff 1      A      E
por tu educación.


    A
Una chica-chica guapa,

      D
chica guapa bastante notable,

        B           E
y yo un muchachote

Riff 1  A     E
sin posición.


        D
No me puedo permitir

                       A
seguir viviendo así contigo.

             D
Y es que aún soy un chavalín

      F#m
sin medios para vivir,

G                E
yo no tengo porvenir.


-D PETIR INTRO-


Riff final:
                                                             A6
E|-------------------------------------------------------|
B|-------------------------------------------------------|
G|-------------------------------------------------------|
D|-------------------------------------------------------|
A|--4-5-6-7----------4-5-6-7-----------4-5-6-7-----------|
E|-----------2-3-4-5----------2-3-4-5-----------2-3-4-5--|
Compositor não encontrado.
    • ½ Tom
    • A
    • Bb
    • B
    • C
    • Db
    • D
    • Eb
    • E
    • F
    • F#
    • G
    • Ab
  • Adicionar à lista

    0 comentários

    Ver todos os comentários

    Conseguiu tocar?

    0 Tocaram 0 Ainda não

    Grave um vídeo tocando Complejo e nos envie!

    00:00 / 00:00
    Outros vídeos desta música
    Repetir Qualidade Automático
    Outros vídeos desta música
    00:00 / 00:00
    Automático

    Cifra Club Pro

    Aproveite o Cifra Club com benefícios exclusivos e sem anúncios
    Cifra Club Pro
    Aproveite o Cifra Club com benefícios exclusivos e sem anúncios
    OK