Cifra Club

A Outra

Los Hermanos

Cifra: Principal (violão e guitarra)
exibições 427.014
Tom: A
[Intro] F#m7  Bm6

E|--------------------------------------------------------------|
B|--------------------------------------------------------------|
G|--------------------------------------------------------------|
D|-------------------------2--0---------------------------------|
A|----------4--4--2-----2--------4----------4--4--2------2--0---|
E|-2---x-2--------------------------2---x-2---------5--4------2-|

F#m7  Bm6          F#m7  E7/9
Paz,      eu quero paz
         A7M          C#7        F#m7     F#7 F#7/G# F#7/A#
Já me cansei de ser a última a saber de ti
    Bm7        C#7
Se todo mundo sabe
         Bm7           
Quem te faz chegar mais tarde
          Bm7         E7
Eu já cansei de imaginar
         A7M
Você com ela
         Bbm7/5b       D        D/E 
Diz pra mim se vale a pena, amor
  F°/E      F#m7
A gente ria tanto
                 F#m7
Desses nossos desencontros
                  Bm7
Mas você passou do ponto
            E  E/F   F#m7  Bm6
E agora eu já não sei mais

          F#m7  E7/9
Eu quero paz
          A7M           C#7
Quero dançar com outro par
        F#m      F#7 F#7/G# F#7/A#
Pra variar, amor
     Bm7            C#7
Não dá mais pra fingir
               Bm7
Que ainda não vi
                     Bm7
As cicatrizes que ela fez
          E7           A7M        Bbm7/5b
Se desta vez ela é senhora deste amor
           D    D/E    F°/E
Pois vá embora, por favor
           Ebº           C#7
Que não demora pra essa dor

   F#m7  Bm6  F#m7
Sangrar

( F#m7  Bm6  F#m7 )
( E  A7M  C#7  F#m7  F#7 )

     Bm7            C#7
Não dá mais pra fingir
               Bm7
Que ainda não vi
                     Bm7
As cicatrizes que ela fez
          E7         A7M         Bbm7/5b
Se desta vez ela é senhora deste amor
           D    D/E     F°/E
pois vá embora, por favor
           Ebº           C#7
Que não demora pra essa dor
     F#m7
Sangrar

[Solo] F#m  Bm6

E|-----------------------------------------------------------------------------------------|
B|-----------------------------------------------------------------------------------------|
G|-----------------------------------------------------------------------------------------|
D|-----------------------------------------------------------------------------------------|
A|---------------------4-7-5-4-5-7--5-4-2-0-0-2-4-0---2--0---2-0---2-0---------------------|
E|-0-2-2-0-2-0-2-4-5-7------------------------------2------2-----2-----2-0-4-2-0-4-2-0-4-2-|

0 comentários

mostrar mais comentários

Conseguiu tocar?

30 tocaram 3 ainda não

Grave um vídeo tocando A Outra e mande pra gente!

00:00 / 00:00
outros vídeos desta música
repetir qualidade Automático
Outros vídeos desta música
00:00 / 00:00
Automático
OK