Cifra Club

Corre Corre

Los Hermanos

Cifra: Principal (violão e guitarra)
Tom: Fm
[Intro] Ab  Eb  Fm7  Cm7  Fm7  Cm7  Bbm7  Eb7  Ebº

E|----8---8----8----8----8----8----8------------------|
B|-9----8---------------------------------------------|
G|----------10----8---10---8--------------------------|
D|------------------------------10------8-10----------| (2x)
A|-----------------------------------11---------------|
E|----------------------------------------------------|

E|----8---8----8----8----8----8----8------------------|
B|-9----8---------------------------------------------|
G|----------10----8---10---8--------------------------|
D|------------------------------10--------------------|
A|----------------------------------------------------|

E|---------------------------------------11-8---------|
B|----------------------------------------------------|
G|-----------------8-10-13-12-10-8-10-12--------------|
D|-----8--11-10-8-------------------------------------|
A|--11------------------------------------------------|
E|----------------------------------------------------|

[Primeira Parte]

Ab               Eb  Fm7
 Rodei o mundo até
             Cm7
Você se distrair
 Fm7                Cm7
Não tinha culpa ou direção
   Bbm7         Eb7
Ou olhos pra guiar

Ab7M          Eb 
Eu acho graça   
                Fm7
Que a vida passa
               Cm7
E a solidão é mais
Fm7                   Cm7 
 Desculpa, se eu não tive fé
    Bbm7           Eb  
Ou forças pra lutar

[Pré-Refrão]

Fm7  Cm7 
Ah
           Bbm7        Eb       Fm7  Cm7
Fico à vontade, mas você não vem
        Bbm7         Eb  
Espero tanto teus sinais
Fm7  Cm7 
Ah
        Bbm7                  Eb    Fm7  Cm7
É madrugada, mas não vem ninguém
              Bbm7        Eb   
De longe, eu vejo o temporal

[Refrão]

 Ab            Eb 
Corre, corre, corre
 Fm7             Cm7
Doce é o vento que te leva
Fm7           Cm7
Eu não tenho mais a pressa
    Bbm7         Eb7
Ou horas pra contar

Ab    Eb      Fm7
Pela vida solta
             Cm7
Todo o meu amor com ela
Fm7                Cm7       Bbm7
 Que esse azul do céu espera
               Eb7
Coragem pra mudar

[Solo] Ab  Eb  Fm7  Cm7  Fm7  Cm7  Bbm7  Eb7  Ebº

E|----------------------------------------------------|
B|----------------------------------------------------|
G|----------------------------------------------------|
D|---------------------------6---6-5------------------|
A|-----------6---6-7-7h8-------8-----8-6---6/8--------|
E|-4---4-6-8-----------------------------8------------|

E|--------------------------------------6--8----------|
B|---------------------------------6--9----8----------|
G|--------------------------3--5/6---------8----------|
D|--------------------3--6-----------------6----------|
A|-8---8-6----------4---------------------------------|
E|---8-----8--6--4------------------------------------|

[Pré-Refrão]

Fm7  Cm7 
Ah
           Bbm7        Eb       Fm7  Cm7
Fico à vontade, mas você não vem
        Bbm7         Eb  
Espero tanto teus sinais
Fm7  Cm7 
Ah
        Bbm7                  Eb    Fm7  Cm7
É madrugada, mas não vem ninguém
              Bbm7        Eb   
De longe, eu vejo o temporal

[Refrão]

 Ab            Eb 
Corre, corre, corre
 Fm7             Cm7
Doce é o vento que te leva
Fm7           Cm7
Eu não tenho mais a pressa
    Bbm7         Eb7
Ou horas pra contar

Ab    Eb      Fm7
Pela vida solta
             Cm7
Todo o meu amor com ela
Fm7                Cm7       Bbm7
 Que esse azul do céu espera
               Eb7
Coragem pra mudar

[Final] Ab  Eb  Fm7  Cm7  Fm7  Cm7  Bbm7  Eb7  Ebº

E|----8---8----8----8----8----8----8------------------|
B|-9----8---------------------------------------------|
G|----------10----8---10---8--------------------------|
D|------------------------------10------8-10----------| (2x)
A|-----------------------------------11---------------|
E|----------------------------------------------------|

E|----8---8----8----8----8----8----8------------------|
B|-9----8---------------------------------------------|
G|----------10----8---10---8--------------------------|
D|------------------------------10--------------------|
A|----------------------------------------------------|

E|---------------------------------------11-8---------|
B|----------------------------------------------------|
G|-----------------8-10-13-12-10-8-10-12--------------|
D|-----8--11-10-8-------------------------------------|
A|--11------------------------------------------------|
E|----------------------------------------------------|
exibições 4.990
Acordes para:
    Composição: Los Hermanos Colaboração e revisão:
    • Getúlio Vasconcelos
    • João Oliveira

    0 comentários

    mostrar mais comentários

    Conseguiu tocar?

    9 tocaram 1 ainda não

    Grave um vídeo tocando Corre Corre e mande pra gente!

    00:00 / 00:00
    outros vídeos desta música
    repetir qualidade Automático
    Outros vídeos desta música
    00:00 / 00:00
    Automático
    OK