Cifra Club

Aprenda

Deixa Estar

Los Hermanos

Cifra: Principal (violão e guitarra)
Tom: G
Intro
(Guitarra e Baixo)
E|-------------------------------|
B|-------------------------------|
G|-------------------------------| (6x)
D|---------2------9-9-9-9-9-9-9--|
A|-----2-3-----------------------|
E|--0----------------------------|

(Guitarra)
E|----------------------------------------------------------------|
B|----------------------------------------------------------------|
G|----------------------------------7-----------------------------|
D|----------------------------9---9---9------7--------------------|
A|-------7-9-10-9-----7-9-10------------10------7--10-------------|
E|-----------------10----------------------------------7--10------|

E|------------------------------------10--------------------------|
B|----------------------------12---12----12----10-----------------|
G|-9--99-11-12-11----9-11-12----------------12----9-12------------|
D|----------------12-----------------------------------9--12-13-14|
A|----------------------------------------------------------------|
E|----------------------------------------------------------------|

( Fm  F#m  F#m  F#m  F#m ) (3x)

( Fm  F#m  Fm  Em )

Dm
Ligue (5x) para mim
                                Gm
Diga (5x) que me ama que eu não vou mais implorar
   C      A7           Dm   A
Se quer saber, deixa estar
Dm
Digo que não ligo mas não vivo sem você.. Falo, não me calo, tiro sarro só pra ver se eu con-
Gm               C    A7           Dm7     C7 Dm G Dm7 C7  
sigo despertar o seu amor, deixa estar

   Dm7 C7 Dm G (2x)
Eu sei, que na verdade eu não consigo entender o nosso amor
   Dm7 C7 Dm G (2x)
Que teu silêncio fala alto no meu peito e que nós
Em7  D Em7 A7 (2x)                                    B
Dois, estamos juntos na distância, discrepância do destino

Dm
Ziguezaguiando zonzo de te procurar
                                                       Gm
eu tranco no meu pranto o canto alto de euforia que eu queria te cantar
    C      A7
Guardo pra mim
        Dm
Deixa estar
Dm
Sei que fez um mês entre vocês de união

                                                  Gm
Pouco muito pouco quase nada, nesta estrada você está na contramão
    C   A7           Dm7 C7 Dm G Dm7 C7 Dm7 A7
E a solidão, deixa estar

Dm7 C7 Dm G (2x)
Vocês, vão aprender que nesta vida não se pode mais errar
Dm7 C7 Dm G (2x)
Vão descobrir que entre as estrelas e o chão existe o mar
Em7  D Em7 A7 (4x)                                                                      B
E aí então a euforia um belo dia vai passar.. E cairá sobre seu mundo num segundo a traição

( Dm )

( Em )

           Dm
Deixa estar
Composição de Marcelo Camelo
Colaboração e revisão:
218.954 exibições
    • ½ Tom
    • A
    • Bb
    • B
    • C
    • Db
    • D
    • Eb
    • E
    • F
    • F#
    • G
    • Ab
  • Adicionar à lista

    0 comentários

    Mostrar mais comentários

    Conseguiu tocar?

    5 Tocaram 1 Ainda não

    Grave um vídeo tocando Deixa Estar e mande pra gente!

    00:00 / 00:00
    outros vídeos desta música
    repetir qualidade Automático
    Outros vídeos desta música
    00:00 / 00:00
    Automático

    Cifra Club Pro

    Aproveite o Cifra Club com benefícios exclusivos e sem anúncios
    7 dias grátis
    Cifra Club Pro
    Aproveite o Cifra Club com benefícios exclusivos e sem anúncios
    7 dias grátis
    OK