Cifra Club

Doce Solidão

Los Hermanos

Cifra: Principal (violão e guitarra)
Tom: A
INTRO: A C#m7 (C#m7 Cm7 Bm7) E (riff1)
       A C#m7 (C#m7 Cm7 Bm7) E (riff2)
 
Riff1
e|-------------------------  
B|------------5------------   
G|-----2-4/6~---6h4~-------   
D|-2/4~--------------------     
A|-------------------------   
E|-------------------------   

Riff2
e|-------------------------  
B|-------------------------   
G|-----2---4/6-4/6~--------   
D|-2/4~----4/6-4/6~--------     
A|-------------------------   
E|-------------------------
 
Riff3
e|-------------------------  
B|-------------------------   
G|------2~-----2~----------   
D|--2/4----2/4-------------     
A|-------------------------   
E|-------------------------

A          C#m7 (C#m7 Cm7 Bm7)           E          A
Posso estar só               mas sou de todo mundo
          C#m7     (C#m7 Cm7 Bm7)           E          A 
Por eu ser    só um              A nem , a não , a nem dá
     C#m7 Cm7 Bm7                        E 
Solidão ,     foge que eu te encontro que eu já tenho asa
Dm7 C#m7 Bm7   A  (riff 3)
  Isso   lá é bom
Dm7 C#m7 Bm7  E
  Doce  solidão

FINAL: A C#m7 (C#m7 Cm7 Bm7) E (riff 1)
       A C#m7 (C#m7 Cm7 Bm7) E (riff 2)  A
exibições 44.223
Acordes para:
    Colaboração e revisão:
    • Leopoldino _
    • Lucas Santiago
    • Vinicius Gusmão

    0 comentários

    mostrar mais comentários

    Conseguiu tocar?

    1 tocaram 0 ainda não

    Grave um vídeo tocando Doce Solidão e mande pra gente!

    00:00 / 00:00
    outros vídeos desta música
    repetir qualidade Automático
    Outros vídeos desta música
    00:00 / 00:00
    Automático
    OK