Cifra Club

Morena

Los Hermanos

Tab de baixo: Principal
Intro:
Gb|------------------------|
Db|---4---4----5---5-------|
Ab|-5---5----7---7---------|
Eb|------------------------|

 É, morena... 
Gb|--------------------------------------------------------------------------|
Db|----------7-7--------7-7--------------------------------------------------|
Ab|-5--5-5-5------5-5-5-----7--7-7-7-7-7-7--7-7-7-7-7/10~-7/10~-7/12~-7/12~--|
Eb|--------------------------------------------------------------------------|

 ...........Pode rir agora............se enrola 
Gb|------------------------------------------------|
Db|------------------------------------------5-----|
Ab|-----3--1-1-3-----3--1-1-3-5~~~------------5----|
Eb|-1-1--3-------1-1--3------------------------3~--|

 Pra nós, todo amor do mundo... 
Gb|-------------------------------------------------------------------|
Db|-9----9--9h11-9-------------------------------------------------4--|
Ab|--9-------------7-9~-8h9-7~--4h5---5h7/12-12-11-10-9-9--5---2-2---2|
Eb|---7~---------------------------5~------------------------2--------|

 Eu não, prefiro assim 
Gb|------------------------------------------------|
Db|-2----------------------2h4--------4----2-------|
Ab|--2-------------------4-----0-2--2---2---2------|
Eb|---0~--3-5--5-4-3-2~----------------------0~-3-5|

(Intro 4x)

Solo 4x:
Gb|-----------------------|
Db|-----------------------|
Ab|-5--5-5-----7--7-7-----|
Eb|--------5-5--------7-7-|

(Refrão)

(Intro 4x)
exibições 2.261
Composição: Marcelo Camelo Colaboração e revisão:
  • Guilherme Barnez

0 comentários

mostrar mais comentários

Conseguiu tocar?

1 tocaram 0 ainda não

Grave um vídeo tocando Morena e mande pra gente!

00:00 / 00:00
outros vídeos desta música
repetir qualidade Automático
Outros vídeos desta música
00:00 / 00:00
Automático
OK