Cifra Club

Os Pássaros

Los Hermanos

Cifra: Principal (violão e guitarra)
Tom: F
[Intro] Dm  A/C#  Am/C  G/B 
        Gm/Bb  Dm/A  Gm7  Bb/F  C/G  
 
  Dm                       A/C#      Am/C               G/B            
E|-5------------------------x----x----x-------------------x---|
B|-6--------------------5-3-2----x----10-8-6-8------8-6-5-8---|
G|-7----5------5------------2----9--9-9-----------7-------7---|
D|-7------7------7-5--------2----8----8-------------------9---|
A|-5-----------------4------4----x----x-------------------9---|
E|-x------------------------x----8----8-------------------x---|

  Gm/Bb     Dm/A      Gm7   Bb/F  C/G
E|---------------------x------x---0-----------------------------|
B|-8-6\5/6------6-5-3--3----3-3---1-----------------------------|
G|------------5--------3--3---3---3-----------------------------|
D|---------------------3------3---2-----------------------------|
A|---------------------x------3---3-----------------------------|
E|---------------------3------x---x-----------------------------|

Dm    A/C# 
Eu aflito e só 
   Am/C            G/B 
Confuso sem você por aqui
    Gm/Bb               Dm/A 
Assim eu sonhei mas isso eu não quis
     Gm 
Que diferença?  
     Bb/F      C/G
O dia se fez assim
Dm       A/C# 
Há um conflito, um nó
    Am/C 
Eu difuso enfim
     G/B           Gm/Bb 
Os pássaros vêm me levar aí 
       Dm/A             Gm                Bb/F  C/G
Visitar o céu e pra ver você levantando o véu  pra mim
 
( F  Eb ) 
 
Dm       A/C#               Am/C                  G/B 
Mas eles só me vêem quando eu já não sei se eu estou são 
          Gm/Bb 
O que é um sonho ruim
           Dm/A 
O que é um sonho bom 
     Gm 
Que diferença? 
      Bb/C 
A vida é igual 
C7       Dm       A/C# 
Assim e eu não sei 
Am/C       G/B 
    Eu não sei 
        Gm/Bb            Dm/A 
Eu não sei se isso é você
             Gm 
Quem bate aí? 
                      Bb/F     C/G
Se é pra te ver então deixa eu dormir
 
( F  Eb )
exibições 75.545
Acordes para:
    Composição: Rodrigo Amarante Colaboração e revisão:
    • Marcos Moreira
    • Pedro Costa
    • Alexandre Broda

    0 comentários

    mostrar mais comentários

    Conseguiu tocar?

    12 tocaram 0 ainda não

    Grave um vídeo tocando Os Pássaros e mande pra gente!

    00:00 / 00:00
    outros vídeos desta música
    repetir qualidade Automático
    Outros vídeos desta música
    00:00 / 00:00
    Automático
    OK