Cifra Club

Outro Alguém

Los Hermanos

Cifra: Principal (violão e guitarra)
Tom: C
 [Intro]: Am
E|-10----------|-10----------|-10----------|-10----------|
B|----10-12----|----10-12----|----10-12----|----10-12----|
G|----------11-|----------11-|----------11-|----------11-|

Am
Não dá mais pra mim
                F            E
pra eu poder viver aqui sem ter a ti,
     Am
não dava pra prever
               F
que eu não ia mais te ter,
     E          A
não dava pra saber
          Dm
que ia me deixar,
G
me trocar por

A7+       Bm7   Dm7
Outro alguém...     (2x)
Am
Olho para trás
          F                  E
a ver a alegria que você não foi capaz
  Am
de me causar
             F
penso neste tempo
       E            A
que passei sem perceber
          Dm
que não queria mais
   G
e hoje estás com

A7+       Bm7   Dm7
Outro alguém...     (12x)

NOS REFRÕES DEDILHE ASSIM:

       Am       Bm7         Dm7         Dm7
E|-------0--------0---------0-------|----0----|
B|-----2--------3---------6---6-----|----6----|
G|---1--------2---------5-------5---|----5----|
D|-2--------4---------7-----------7-|----7----|
A|----------------------------------|---------|
E|----------------------------------|---------|
exibições 166.618
Acordes para:
    Composição: Marcelo Camelo Colaboração e revisão:
    • Gabriel Augusto
    • Renan Piovan
    • Johnathan Meira

    0 comentários

    mostrar mais comentários

    Conseguiu tocar?

    13 tocaram 0 ainda não

    Grave um vídeo tocando Outro Alguém e mande pra gente!

    00:00 / 00:00
    outros vídeos desta música
    repetir qualidade Automático
    Outros vídeos desta música
    00:00 / 00:00
    Automático
    OK