Cifra Club

Mamalluca

Los Jaivas

Cifra: Principal (violão e guitarra)
Selo Cifra Club: esta cifra foi revisada para atender aos critérios oficiais da nossa Equipe de Qualidade.
tom: Gm
intro:

E|--13/15-13----13----13----------------------15----15-18-15~---------------------------|
B|-----------15----15----15-13^15^13-------15~---18----------18-15-18-15----------------|
G|-----------------------------------15-12-------------------------------17-15-17-15----|
D|-----------------------------------------------------------------------------------17~|

E|--------------------------------------------15----15-18-15-15-15/18-15/18-18-15/18-18-15/18-18-|
B|--------------------------15----15-18-15-18----18----------------------------------------------|
G|--------15----15-17-15-17----17----------------------------------------------------------------|
D|--12-17----17----------------------------------------------------------------------------------|

E|--15/18-18-15/18-18-15/18-18-18-15^18^15-13----15~15^13----13----------------------------------------------|
B|--------------------------------------------15----------15----15-13^15^13----13----------------------------|
G|--------------------------------------------------------------------------15----15-14-12-------------------|
D|-----------------------------------------------------------------------------------------15-12-------------|
A|-----------------------------------------------------------------------------------------------15-13-12-10~|

E|--------------------------------------------------------------------------------------------------------------------------------------15/-|
B|--------13/15~15-13^15^13-------15~------13/15~15-13^15^13----------------13/15~15-13^15^13-------15~------13/15~15-13^15^13--------------|
G|--12/15~------------------15-12----12/15~------------------15-12-15~12/15~------------------15-12----12/15~------------------15-14-12-----|



 Gm   Cm       F         Gm  
:/mamalluca, simiente reposado,
     Cm      F              Gm  
mamalluca, mirando a lo profundo/:
D   Gm       Cm              D 
mamalluca, traes los vientos cosmicos,
        Gm          Cm          D7 
a refrescar, la amalgama inverosimil.
Gm    Cm          F            Gm  
mamalluca, de los montes que cobijan,
     Cm      F             Gm  
mamalluca, a los valles elquinos.

D               Gm  
mamalluca, mamalluca,
D               Gm  
mamalluca, mamalluca,
D   Gm               D 
racimo, racimo celestial,
     Gm         D     Gm  
mamalluca, mamalluca.
     D            Gm          D    Gm  
mamalluca, noche eterna, mamalluca,
     D            Gm          D    Gm  
mamalluca, dia incierto, mamalluca.

   Gm   Cm      F           Gm  
:/mamalluca, de tanto sumergirte,
              Cm       F            Gm  
en las vertiginosas cascadas de los cielos/:
D     Gm    Cm     D 
desapareces gota a gota,
                Gm  
te haces transparente,
       Cm          D7 
y eres montaña de viento.
Gm    Cm     F       Gm  
mamalluca, materia ignota,
     Cm      F           Gm  
mamalluca, espacio, puro nada.

     D          Gm  
mamalluca, mamalluca,
     D          Gm  
mamalluca, mamalluca,
     D                      Gm  
mamalluca, fragilidad de la vida,
     D   Gm          D 
mamalluca,......mamalluca,
     Gm     D              Gm  -D 
mamalluca, nuestra misma galaxia,
     D          Gm  
mamalluca, mamalluca,
         D         Gm  
hasta el ultimo planeta.
Outros vídeos desta música
    93 exibições
      • ½ Tom
      • Am
      • Bbm
      • Bm
      • Cm
      • C#m
      • Dm
      • Ebm
      • Em
      • Fm
      • F#m
      • Gm
      • G#m
    • Adicionar à lista

    Afinação da cifra

    Afinador online

      0 comentários

      Ver todos os comentários

      Conseguiu tocar?

      0Tocaram0Ainda não

      Grave um vídeo tocando Mamalluca e nos envie!

      Toque também

      1. Imagem do artista Los TresHe Barrido El Sol Los Tres
      2. Imagem do artista Manuel GarciaEl viejo comunista Manuel Garcia
      3. Imagem do artista Joe VasconcellosTú És Maior Joe Vasconcellos
      4. Imagem do artista IllapuVuelvo para vivir Illapu

      Entre para o Cifra Club PRO

      Tenha acesso a benefícios exclusivos no App e no Site

      • Chega de anúncios

      • Badges exclusivas

      • Mais recursos no app do Afinador

      • Atendimento Prioritário

      • Aumente seu limite de lista

      • Ajude a produzir mais conteúdo

      Cifra Club Pro

      Aproveite o Cifra Club com benefícios exclusivos e sem anúncios
      Cifra Club Pro
      Aproveite o Cifra Club com benefícios exclusivos e sem anúncios
      OK