Cifra Club

Te Jodiste

Los Rabanes

Cifra: Principal (violão e guitarra)
tom: A
INTRO:
entra el bajo y la guitarra haciendo esto

9-12-7-9-5-9-7-9-10-9-9-7-9-7-5-7-7-7-|

Versos
(Todo es con quintillas)
Para que Dices que me quieres si al final haces lo que
quieres ojo por ojo diente por diente....cruel
    A5       E5      F#m5
E|----------------------------------|-------------------------------------|
B|----------------------------------|-------------------------------------|
G|--------99999--11-11-11-11--99999-|--------99999--77777--10-10-10-10--|
D|-77777--99999--11-11-11-11--99999-|-77777--99999--77777--10-10-10-10--|
A|-77777--77777--9-9-9-9--9---77777-|-77777--77777--55555--8--8--8--8----|
E|-55555----------------------------|-55555-------------------------------|

Yo que pensaba que las mujeres
igual que tu todas eran mala gente
pero tu hermana fue diferente o brutal
E|----------------------------------|-------------------------------------|
B|----------------------------------|-------------------------------------|
G|--------99999--11-11-11-11--99999-|--------99999--77777--10-10-10-10--|
D|-77777--99999--11-11-11-11--99999-|-77777--99999--77777--10-10-10-10--|
A|-77777--77777--9-9-9-9--9---77777-|-77777--77777--55555--8--8--8--8----|
E|-55555----------------------------|-55555-------------------------------|

CORO
Oh oh no que va, no pienses así yo no te falle, O.K.
E|------------------------------|-----------------------------|
B|------------------------------|-----------------------------|
G|--------99999--777777--7/6/4--|--------99999--77777--99999--|
D|-77777--99999--777777--7/6/4--|-77777--99999--77777--99999--|
A|-77777--77777--555555--5/4/2--|-77777--77777--55555--77777--|
E|-55555------------------------|-55555-----------------------|

Te jodiste tu yo estoy muy feliz y tu hermana también....
¡¡¡Oh righT!!
E|------------------------------|-----------------------------|
B|------------------------------|-----------------------------|
G|--------99999--777777--7/6/4--|--------99999--77777--99999--|
D|-77777--99999--777777--7/6/4--|-77777--99999--77777--99999--|
A|-77777--77777--555555--5/4/2--|-77777--77777--55555--77777--|
E|-55555------------------------|-55555-----------------------|

Tú pensabas montarme los cuernos,
pero tu madre aun me dice yerno,                     E
yo aquí en el cielo y tú en el infierno.... o no que mal.
E|----------------------------------|-------------------------------------|
B|----------------------------------|-------------------------------------|
G|--------99999--11-11-11-11--99999-|--------99999--77777--10-10-10-10--|
D|-77777--99999--11-11-11-11--99999-|-77777--99999--77777--10-10-10-10--|
A|-77777--77777--9-9-9-9--9---77777-|-77777--77777--55555--8--8--8--8----|
E|-55555----------------------------|-55555-------------------------------|

Tú me quemaste yo pase mi pena,tu sigues flaca
tu hermana si esta buena,
como me ama y como se menea...oh ¡brutal!
E|----------------------------------|-------------------------------------|
B|----------------------------------|-------------------------------------|
G|--------99999--11-11-11-11--99999-|--------99999--77777--10-10-10-10--|
D|-77777--99999--11-11-11-11--99999-|-77777--99999--77777--10-10-10-10--|
A|-77777--77777--9-9-9-9--9---77777-|-77777--77777--55555--8--8--8--8----|
E|-55555----------------------------|-55555-------------------------------|

Aki empieza el ritmo ska
(no estoy seguro pero creo que se hace con Palm Muted)
Ayyyy como yo me rio de ti,Ayyyy que bonito es el amor
Ayyyy como yo me rio de ti,Ayyyy jajajaj
Ahora estoy mucho mejor.
E|---------------------------------------|
B|---------------------------------------|
G|----------9x9x9x----------7x7x7x---|
D|--7x7x7x--9x9x9x--7x7x7x--7x7x7x---| x2
A|--7x7x7x--7x7x7x--7x7x7x--5x5x5x---|
E|--5x5x5x----------5x5x5x------------|

CORO
OH o no que va no pienses así yo no lo planee también,
Te jodiste tú yo estoy muy feliz y tu hermana también
¡¡¡brutal!!!
E|------------------------------|-----------------------------|
B|------------------------------|-----------------------------|
G|--------99999--777777--7/6/4--|--------99999--77777--99999--|
D|-77777--99999--777777--7/6/4--|-77777--99999--77777--99999--| x2
A|-77777--77777--555555--5/4/2--|-77777--77777--55555--77777--|
E|-55555------------------------|-55555-----------------------|

Aki un sonido mas llegado al reggae
(creo que aqui si se usa palm muted)
Tú te jodiste,
Solo tú te jodiste,
Tú te jodiste,
E|---------------------------------------|
B|---------------------------------------|
G|-----------9x9x9x9--7x7x7x7--9x9x9x9---|
D|--7x7x7x7--9x9x9x9--7x7x7x7--9x9x9x9---| x3
A|--7x7x7x7--7x7x7x7--5x5x5x5--7x7x7x7---|
E|--5x5x5x5------------------------------|

Solo ¡¡¡tu!!
aki se hace un cambio
E|------------------------------|
B|------------------------------|
G|-------9999--7/9/11/13/14/16--|
D|-7777--9999--7/9/11/13/14/16--|
A|-7777--7777--5/7/9-/11/12/14--|
E|-5555-------------------------|

(aqui se calla la guitarra y el bajo
y solo se oye la bateria)
Oh oh no que va, no pienses así yo no te falle, O.K.

(y vuelve la guitarra y el bajo)
Te jodiste tú yo estoy muy feliz y tu hermana también
E|------------------------------|-----------------------------|
B|------------------------------|-----------------------------|
G|--------99999--777777--7/6/4--|--------99999--77777--99999--|
D|-77777--99999--777777--7/6/4--|-77777--99999--77777--99999--|
A|-77777--77777--555555--5/4/2--|-77777--77777--55555--77777--|
E|-55555------------------------|-55555-----------------------|

OH o no que va no pienses así yo no lo planee también,
Pero que más da yo estoy muy feliz y tú hermana también
E|------------------------------|-----------------------------|
B|------------------------------|-----------------------------|
G|--------99999--777777--7/6/4--|--------99999--77777--99999--|
D|-77777--99999--777777--7/6/4--|-77777--99999--77777--99999--| x2
A|-77777--77777--555555--5/4/2--|-77777--77777--55555--77777--|
E|-55555------------------------|-55555-----------------------|

Yo estoy muy feliz y tú hermana también
Yo sigo feliz con tu hermana Michelle
E|-------------------------------|
B|-------------------------------|
G|--------99999--77777--99999----|
D|-77777--99999--77777--99999----| x2
A|-77777--77777--55555--77777----|
E|-55555-------------------------|

y acaba con A
E|-----|
B|-----|
G|-----|
D|--7--|
A|--7--|
E|--5--|

FIN

Bueno esta cancion ya estaba pero tenia pequeñisimos errores
y la puse como yo me la se
y creo que es correcta la toca con mi banda y suena Bien!!
bueno me llamo ugo asgar garcia briseño
y toco en una banda de punk-rock llamada acoso sexual
ps les dejo mi facebook mi correo
y el enlace de la pagina del face de mi banda
dudas reclamaciones y reclamos ahi me las puden hacer
PD.. si alguien se sabe la cancion de doctor muerte de los rabanes o
cualquier otra que no venga en esta pagina
por fa mandenmela a mi correo o face chido y espero respuestas gracias
o busquenme como Askar vibration Yerbafari
o busquenlo como akozo sexual
grax por fa si alguien tine las notas de la de doctor muerte
mandenmelas porfa
00:00 / 00:00
Outros vídeos desta música
Repetir
Outros vídeos desta música
Compositor não encontrado.
1 exibições
    • ½ Tom
    • A
    • Bb
    • B
    • C
    • Db
    • D
    • Eb
    • E
    • F
    • F#
    • G
    • Ab
  • Adicionar à lista

    0 comentários

    Ver todos os comentários

    Conseguiu tocar?

    0 Tocaram 0 Ainda não

    Grave um vídeo tocando Te Jodiste e nos envie!

    00:00 / 00:00

    Cifra Club Pro

    Aproveite o Cifra Club com benefícios exclusivos e sem anúncios
    Cifra Club Pro
    Aproveite o Cifra Club com benefícios exclusivos e sem anúncios
    OK