Cifra Club

Dulce Castigo

Los Suaves

Cifra: Principal (violão e guitarra)
tom: D
Intro:

   A5              C5              G5              D5
E|------------------------------------------------------------------|
B|------------------------------------------------------------------|
G|--------5-5-------------5-5-------------7-7-------------7-7-------|
D|----7-7-----7-7-----5-5-----5-5-----5-5-----5-5-----7-7-----7-7---|
A |0-0-------------3-3-----------------------------5-5---------------|
E|--------------------------------3-3-------------------------------|

y digo ke es destrozamuñekaderecha porke para ke suene komo en el disko
hay ke tokarlo kon Palm Mute y púa-kontrapúa. Pa 'bernos matao...

Mientras kanta (la letra es la leche) os destrozáis la muñeka y tokáis esto:

   A5              C5              G5              D5
E|------------------------------------------------------------------|
B|------------------------------------------------------------------|
G|--------5-5-------------5-5-------------7-7-------------7-7-------|
D|----7-7-----7-7-----5-5-----5-5-----5-5-----5-5-----7-7-----7-7---|
A |0-0-------------3-3-----------------------------5-5---------------|
E|--------------------------------3-3-------------------------------|

   A5              C5              G5              D5
E|------------------------------------------------------------------|
B|---------------------------------------------------8-7------------|
G|--------5-5-------------5-5-------------7-7-----7--7-7------------|
D|----7-7-----7-7-----5-5-----5-5-----5-5-----5-5-7-----------------|
A |0-0-------------3-3-----------------------------5-----------------|
E|--------------------------------3-3-------------------------------|

Para el estribillo va kambiando entre E y F, akabando kon Palm Mute a
sako en G, y luego:

   A5        C5        D5        C5
E|------------------------------------------------------------------|
B|------------------------------------------------------------------|
G |2--5-4-2--5--5-4-2--7--7-5-4--5--5-4-2----------------------------|
D |2---------5---------7---------5-----------------------------------|
A |0---------3---------5---------3-----------------------------------|
E|------------------------------------------------------------------|
Compositor não encontrado.
    • ½ Tom
    • A
    • Bb
    • B
    • C
    • Db
    • D
    • Eb
    • E
    • F
    • F#
    • G
    • Ab
  • Adicionar à lista

    0 comentários

    Ver todos os comentários

    Conseguiu tocar?

    0 Tocaram 0 Ainda não

    Grave um vídeo tocando Dulce Castigo e nos envie!

    00:00 / 00:00
    Outros vídeos desta música
    Repetir Qualidade Automático
    Outros vídeos desta música
    00:00 / 00:00
    Automático

    Cifra Club Pro

    Aproveite o Cifra Club com benefícios exclusivos e sem anúncios
    Cifra Club Pro
    Aproveite o Cifra Club com benefícios exclusivos e sem anúncios
    OK