Cifra Club

Meu Sossego

LS Jack

Cifra: Principal (violão e guitarra)
tom: F (forma dos acordes no tom de E) Capotraste na 1ª casa
Em                     G
 Só eu entendo a minha solidão
           Am         C              Em F
Tomado pela sensação de não viver mais

Intro solo:

Riff
E|------------------------------|------------------------------|
B|------------------------------|------------------------------|
G|---------------2--4-----------|---------------2--4-4-4-4-----|  3x 
D|------2--5--2--------------2--|------2--5--2-----------------|
A|------------------------------|------------------------------|
E|--0---------------------------|------------------------------|

E|---------------------------------------------|
B|---------------------------------------------|
G|---------------2--4--------------------------|
D|------2--5--2------------2-2/3--3-3-3/2------|
A|---------------------------------------------|
E|--0------------------------------------------|

Em                      G
 Só eu entendo a minha solidão
            Am        C              Em F
 Tomado pela sensação de não viver mais
Em                        G
 Sei eu que a minha louca insensatez
                 Am        C
 Me fez perder você de vez
                  Em F
 Não vou viver mais
G                   D/F#
 Que tudo que você faz
                    Em
 Do jeito que você faz
                 Am
 Me deixa pelo avesso
     C
 Só você me satisfaz
G                   D/F#
 Que tudo que você tem
                    Em
 Do jeito que você vem
                 Am
 Devolve o meu sossego
      C
 Só você me faz tão bem

(Repete o Riff inicial)

Em                          G
 Eu sei que em troca desse seu perdão
                Am
 Me jogo desse avião
C               Em F
 Quero viver mais
Em                      G
 Eu só, a toda pela contra-mão
             Am
 Em busca de satisfação
C              Em  D
 Enfim, viver mais

A                   E/G#
 Que tudo que você faz
                   F#m
 Do jeito que você faz
                Bm
 Me deixa pelo avesso
       D
 Só você me satisfaz
A                   E/G#
 Que tudo que você tem
                F#m
 Do jeito que você vem
              Bm
 Devolve o meu sossego
      D
 Só você me faz tão bem

Riff:

 C5     B5      A5    C5           B5     A5    C#5
E|-------------------|----------------------------------------------|
B|-------------------|----------------------------------------------|
G|-------------------|----------------------------------------------|
D|10-10-10-9-9-9-7-7-|10-10-10-9-9-9-7-7-11-11-11-11-11-11-11-11-11-|
A|-x--x--x-x-x-x-x-x-|-x--x--x-x-x-x-x-x--x--x--x--x--x--x--x--x--x-|2X
E|-8--8--8-7-7-7-5-5-|-8--8--8-7-7-7-5-5--9--9--9--9--9--9--9--9--9-|

                                                        Você me faz tão bem!
 C5     B5  A5       C5  B5   A5   Ab
E|-------------------|------------------------------|
B|-------------------|------------------------------|
G|-------------------|------------------------------|
D|10-10-10-9-9-9-7-7-|10-10-10-9-9-9-7-6-6-6-6-6-7-7|
A|-x--x--x-x-x-x-x-x-|-x--x--x-x-x-x-x-x-x-x-x-x-7-7|
E|-8--8--8-7-7-7-5-5-|-8--8--8-7-7-7-5-4-4-4-4-4-5-5|

A                   E/G#
 Que tudo que você faz
                   F#m
 Do jeito que você faz
                Bm
 Me deixa pelo avesso
       D
 Só você me satisfaz

B                   F#/Bb
 Que tudo que você faz
                   Abm
 Do jeito que você faz
                 C#m
 Me deixa pelo avesso
       E
 Só você me satisfaz
B                  F#/Bb
 Que tudo que você tem
                  Abm
 Do jeito que você vem
                 C#m
 Devolve o meu sossego
       E
 Só você me faz tão bem

        D   C#m    B       D     D#m
E|-------------------|------------------------------|
B|-------------------|------------------------------|
G|--7-7-7-6-6-6-4-4--|-7-7-7-6-6-6-4-4-8-8-8-8-8-8-8|
D|--x-x-x-x-x-x-x-x--|-x-x-x-x-x-x-x-x-x-x-x-x-x-x-x|  2x 
A|--5-5-5-4-4-4-2-2--|-5-5-5-4-4-4-2-2-6-6-6-6-6-6-6|
E|-------------------|------------------------------|
    D     C#m   B    Bb            B
E|-----------------------------------|
B|-----------------------------------|
G|-7-7-7-6-6-6-4-4-------------------|
D|-x-x-x-x-x-x-x-x-8-8-8-8-8-8-8-8-9-|
A|-5-5-5-4-4-4-2-2-x-x-x-x-x-x-x-x-9-|
E|-----------------6-6-6-6-6-6-6-6-7-|
00:00 / 00:00
Outros vídeos desta música
Repetir
Outros vídeos desta música
Composição de Marcus Menna
Colaboração e revisão:
  • Tomas Araújo
  • Irlei Azevedo
84.103 exibições
    • ½ Tom
    • A
    • Bb
    • B
    • C
    • Db
    • D
    • Eb
    • E
    • F
    • F#
    • G
    • Ab
  • Adicionar à lista

    0 comentários

    Ver todos os comentários

    Entre para oCifra Club PRO

    Tenha acesso a benefícios exclusivos no App e no Site

    • Chega de anúncios

    • Prioridade de compra em lançamentos

    • Mais recursos no app do Afinador

    • Atendimento Prioritário

    • Descontos nos produtos Cifra Club

    • Ajude a produzir mais conteúdo

    00:00 / 00:00

    Cifra Club Pro

    Aproveite o Cifra Club com benefícios exclusivos e sem anúncios
    Cifra Club Pro
    Aproveite o Cifra Club com benefícios exclusivos e sem anúncios
    OK