Cifra Club

Tudo Outra Vez

LS Jack

Cifra: Principal (violão e guitarra)
tom: E
INTRO.: C#m, E, B 

E|---------------------------------------------------------------------------
B|---------------------------------------------------------------------------
G|---------------------------------------------------------------------------
D|-----9-11-9-11-9-11-9-11-9-11-9-11-9-11----9-11-9-11-9-11------------------
A|--11-----------------------------------------------11----------------------
E|---------------------------------------------------------------------------

E|---------------------------------------------------------------------------------
B|-----12-14-12-14-12-14-12-14-12-14-12-14---12-14-12-14-12-14-12-14-12-14-12-14--- 
G|---13----------------------------------------------------------------------------
D|---------------------------------------------------------------------------------
A|---------------------------------------------------------------------------------
E|---------------------------------------------------------------------------------
VERSO 1:
       C#m           E            B                          
Quem traiu mais uma vez os meus segredos
     C#m               E             B
quem me ajoelhou foi quem me fez chorar
         C#m         E            B
Fez da minha alma o seu novo brinquedo
   C#m         E        B
atirando do milésimo andar

>>>REFRÃO
          C#m            E            B

Mas se eu pudesse ter de novo os meus sonhos
     C#m           E         B
eu saberia onde posso encontrar
       C#m    E       B
a felicidade desse tamanho
         A            E               B                 
Pra recomeçar outra vez...tudo outra vez.... 

Riff
E|--------------------------------------------------
B|--------------------------------------------------            E            B
G|---9--/- 8--/--6--/--4----------------------------            tudo outra vez
D|---x--/--x--/--x--/--x----------------------------          Repete Riff antes do verso 2
A|---7--/--6--/--4--/--2---------------------------- 
E|--------------------------------------------------

    VERSO 2
                                                                      
   C#m             E          B
Ensaiando o meu sorriso no espelho
       C#m         E          B
na esperança dele nunca me deixar
     C#m         E              B      
procurei intensamente outros desejos
   C#m        E        B  
anestesiando só pra aliviar

>>>REFRÃO 
 C#m            E            B
Mas se eu pudesse ter de novo os meus sonhos
     C#m           E         B
eu saberia onde posso encontrar
       C#m    E       B
a felicidade desse tamanho
         A            E               B
Pra recomeçar outra vez...tudo outra vez 

E                    C#m                B
Quantas vezes a escuridão da solidão doeu        obs: Repete uma vez o Riff
            A                 Ab
acompanhada pela angústia que nunca me esqueceu não...

base do solo ( C#m, E, B) 
E|---------------------------------------------------------------------------
B|---------------------------------------------------------------------------
G|---------------------------------------------------------------------------
G|-----9-11-9-11-9-11-9-11-9-11-9-11-9-11----9-11-9-11-9-11------------------
B|--11-----------------------------------------------11----------------------
E|---------------------------------------------------------------------------

E|---------------------------------------------------------------------------------
B|-----12-14-12-14-12-14-12-14-12-14-12-14---12-14-12-14-12-14-12-14-12-14-12-14--- 
G|---13----------------------------------------------------------------------------
D|---------------------------------------------------------------------------------
A|---------------------------------------------------------------------------------
E|---------------------------------------------------------------------------------
REPETE REFRÃO
00:00 / 00:00
Outros vídeos desta música
Repetir
Outros vídeos desta música
Compositor não encontrado.
Colaboração e revisão:
  • Roberto edvaldo
  • diego naves
67.532 exibições
    • ½ Tom
    • A
    • Bb
    • B
    • C
    • Db
    • D
    • Eb
    • E
    • F
    • F#
    • G
    • Ab
  • Adicionar à lista

    0 comentários

    Ver todos os comentários

    Conseguiu tocar?

    9 Tocaram 1 Ainda não

    Grave um vídeo tocando Tudo Outra Vez e nos envie!

    Entre para oCifra Club PRO

    Tenha acesso a benefícios exclusivos no App e no Site

    • Chega de anúncios

    • Prioridade de compra em lançamentos

    • Mais recursos no app do Afinador

    • Atendimento Prioritário

    • Descontos nos produtos Cifra Club

    • Ajude a produzir mais conteúdo

    00:00 / 00:00

    Cifra Club Pro

    Aproveite o Cifra Club com benefícios exclusivos e sem anúncios
    Cifra Club Pro
    Aproveite o Cifra Club com benefícios exclusivos e sem anúncios
    OK