Cifra Club

Amar Não É Pecado

Luan Santana

Cifra: Completa
exibições 100.643
Tom: B
Intro: G#m  E  B  F#
Riff 1:
  G#m         E            B          F#
E|-------------------------------0--------------|
B|----4---4---------0-2----4---4-----4-2--------|
G|------8---------1--------4-4-----------4-3-1--|
D|-------------------------4--------------------|
A|--6-----------2-----2----2--------------------|
E|4-------4---0---------------------------------|

Riff 2:
  G#m         E            B         F#
E|------------------------------0--------------|
B|----4---4---------0-2---4---4-----4-2--------|
G|------8---------1-------4-4------------------|
D|------------------------4--------------------|
A|--6-----------2-----2---2--------------------|
E|4-------4---0--------------------------------|

Dedilhado 1:
  G#m            E        B             F#
E|---------------0-------------2--------2-------|
B|---------------0----------------------2-------|
G|--4---4--------1-----------4---4------3-------|
D|----8---4------2---------4----------- 4-------|
A|---------------2-------2--------------4-------|
E|4--------------0----------------------2-------|

Dedilhado 2:
  G#m            E            B            F#
E|----------------------------------2-----------2--------|
B|------------------0---0-------------------------2---2--|
G|----4---4-----------3-----------4---4------3-----3-----|
D|------8-----------------------4------------------------|
A|--6-------------2-----------2-------------4------------|
E|4-------------0-------------------------2--------------|

Dedilhado 3:
  G#m            E            B            F#
E|----------------------------------2-----------2-----2--|
B|------------------0---0-------------------------2------|
G|----4---4-----------3-----------4---4-------3-----3----|
D|------8-----------------------4------------------------|
A|--6-------------2-----------2-------------4------------|
E|4-------------0-------------------------2--------------|

G#m        E                   B          F#
  Eu não sei de onde vem essa força que me leva pra você
G#m        E                     B            F#        (Dedilhado 1 - 2x)
  Eu só sei que faz bem, mas confesso que no fundo eu duvidei

G#m        E             B                      F#      (Dedilhado 2 - 1x)
  Tive medo e em segredo,  guardei o sentimento e me sufoquei   
G#m        E                     B                         F#    (Dedilhado 3 - 1x)
  Mas agora é a hora, eu vou gritar pra todo mundo de uma vez   

Refrão:
             B
Eu tô apaixonado
                F#                  G#m                 E
Eu tô contando tudo e não tô nem ligando pro que vão dizer
               B
Amar não é pecado
                 F#                  G#m                  E
E se eu tiver errado, que se dane o mundo, eu só quero você

Intro: ( G#m  E  B  F# )

G#m        E                   B          F#
  Eu não sei de onde vem essa força que me leva pra você
G#m        E                     B            F#
  Eu só sei que faz bem, mas confesso que no fundo eu duvidei

G#m        E             B                      F#
  Tive medo e em segredo,  guardei o sentimento e me sufoquei
G#m        E                     B                         F#
  Mas agora é a hora, eu vou gritar pra todo mundo de uma vez;

Refrão:
             B
Eu tô apaixonado
                F#                  G#m                 E
Eu tô contando tudo e não tô nem ligando pro que vão dizer.
               B
Amar não é pecado
                 F#                  G#m                  E
E se eu tiver errado, que se dane o mundo, eu só quero você.
Acordes para:
    Colaboração e revisão:

    0 comentários

      mostrar mais comentários
      00:00 / 00:00
      outros vídeos desta música
      repetirqualidadeautomática
      Outro vídeos desta música
        00:00 / 00:00
        automática
        Capítulos
        • Início
        • Tocando a música
        • Acordes da música
        • Ensinando dedilhado Intro e Primeira parte
        • Ensinando ritmo do Refrão
        • Encerramento
        OK