Cifra Club

Deus É Muito Bom

Luan Santana

Cifra: Principal (violão e guitarra)
Selo Cifra Club: esta cifra foi revisada para atender aos critérios oficiais da nossa Equipe de Qualidade.
tom: F (forma dos acordes no tom de C) Capotraste na 5ª casa
​​[Intro] C7M  G  Em7  D
        C7M  G  Em7  D

[Tab - Intro]

          C7M  G         Em7   D 
E|-2-3-2-3-0-------2-3-2-3------------------|
B|-----------0-3-0---------3--0-3-0---------|
G|----------------------------------2-------| (2x)
D|------------------------------------------|
A|------------------------------------------|
E|------------------------------------------|

[Primeira Parte]

[Tab - Dedilhado - Primeira Parte]

Parte 1 de 2
   C9     D4     G    
E|-----3-------3-------3--------------------|
B|-------3-------3-------3------------------|
G|---0-------2-------0---------2h4p2p0------|
D|---------0-----------------0--------------|
A|-3----------------------------------------|
E|-----------------3-------3----------------|

Parte 2 de 2
   C9      D4      G
E|-----3-------3-------3--------------------|
B|-------3-------3-------3------------------|
G|---0-------2-------0----------------------|
D|---------0--------------------------------|
A|-3----------------------------------------|
E|-----------------3------------------------|

C9                      D4
   Pro escuro da minha vida
             G
Você foi um sol
C9                     D4
   Nesse mar tão turbulento
              G
Cê foi meu farol

[Pré-Refrão]

[Tab - Dedilhado - Pré-Refrão]

Parte 1 de 3
   Am     C       Cm
E|------------------------------------------|
B|-------1-------0--------0-----------------|
G|-----2-------0--------0-------------------|
D|---2-------2--------1---------------------|
A|-0-------3--------3-----------------------|
E|------------------------------------------|

Parte 2 de 3
   G          D/F#     Em7
E|------------------------------------------|
B|------------------3--------3--------------|
G|-2h4-2h4p2p0--0h2-0------2----------------|
D|-----------------------2------------------|
A|------------------------------------------|
E|-3-----------2-------0--------------------|

Parte 3 de 3
               D                 H.N.
E|-0h2-2h3p2-0------------------------------|
B|-------------------3----------------------|
G|-----------------0-------0h2---7----------|
D|-0-------------4-------4------------------|
A|-------------5-------5--------------------|
E|------------------------------------------|

   Am          C
Se eu sou quem eu sou
Cm             G             D/F#
   É porque você chegou e arrumou
     Em7          D  C
A bagunça, o caos
             D
Meu milagre mais real

[Refrão]

[Tab - Dedilhado - Refrão]

Parte 1 de 2
   C7M  G          Em     D
E|------------------------------------------|
B|----0------------------0------------------|
G|--0-------2h4p2p0--------0-2h4------------|
D|--------0------------2---------4-0--------|
A|-3----------------------------------------|
E|------3------------0----------------------|

Parte 2 de 2
   C9      G      D               H.N.
E|------------------------------------------|
B|-----3------------------------------------|
G|---0---0------0-----0------0-2--7---------|
D|------------0-----2-----4-----------------|
A|-3--------------------5-------------------|
E|---------3------0-------------------------|

          Am                         
Você me trouxe um caminhão
           Em
De coisas boas
           G                      D
Foi minha sorte disfarçada de pessoa
            Am                
Por tantas noites que eu passei
             Em
Juntando as mãos
            G     
Pedindo ao céu
                       D
Pra me mandar uma direção

              C7M  G
Deus é muito bom
                Em7  D
Ouviu minha oração
           C9    G
Deus é muito bom
              Em7  D
Mandou seu coração

[Primeira Parte]

C9                      D
   Pro escuro da minha vida
             G
Você foi um sol
C9                     D
   Nesse mar tão turbulento
            G
Cê foi meu farol

[Pré-Refrão]

   Am          C
Se eu sou quem eu sou
Cm             G             D/F#
   É porque você chegou e arrumou
     Em7          D  C
A bagunça, o caos
             D
Meu milagre mais real

[Refrão]

          Am                         
Você me trouxe um caminhão
           Em
De coisas boas
           G                      D
Foi minha sorte disfarçada de pessoa
            Am                
Por tantas noites que eu passei
             Em
Juntando as mãos
            G     
Pedindo ao céu
                       D
Pra me mandar uma direção

          C                       
Você me trouxe um caminhão
           G
De coisas boas
           Em                     D
Foi minha sorte disfarçada de pessoa
            C               
Por tantas noites que eu passei
             G
Juntando as mãos
            Em     
Pedindo ao céu
                       D
Pra me mandar uma direção

              C7M  G
Deus é muito bom
                Em7  D
Ouviu minha oração
           C7M    G
Deus é muito bom
              Em7  D
Mandou seu coração
Outros vídeos desta música
    73.388 exibições
    • Simplificar cifra
      • ½ Tom
      • A
      • Bb
      • B
      • C
      • Db
      • D
      • Eb
      • E
      • F
      • F#
      • G
      • Ab
    • Adicionar à lista

    Afinação da cifra

    Afinador online

      0 comentários

      Ver todos os comentários

      Entre para o Cifra Club PRO

      Tenha acesso a benefícios exclusivos no App e no Site

      • Chega de anúncios

      • Mais recursos no app do Afinador

      • Atendimento Prioritário

      • Aumente seu limite de lista

      • Ajude a produzir mais conteúdo

      Cifra Club Pro

      Aproveite o Cifra Club com benefícios exclusivos e sem anúncios
      Cifra Club Pro
      Aproveite o Cifra Club com benefícios exclusivos e sem anúncios
      OK