Cifra Club

Donzela

Luan Santana

Cifra: Principal
exibições 47.876
Tom: G
Intro:
E|--------------------|
B|--5--7--5--0--1--0--|
G|--------------------|
D|--------------------|
A|--------------------|
E|--------------------|

Em               C
Jantar a luz de velas
      D         Em
Com flores na janela
               C          D       Em
Fazer daquele jeito com minha donzela
                C       D         Em
Acordar com um beijo a minha cinderela
                C          B  Em
Já vi mulher bonita mas você apela

Em
Perai que eu to bem
                         Am
Deixa eu só me acostumar moça

Em
É demais to sem jeito
                      Am
Eu me perco nessa sua boca

C                         D
É uma questão de se entregar sem medo ô ô
C                      D
Hoje eu to indo te buscar mais cedo ô ô

E|--------------------------------------------------------------------|
B|-----------------------------8--7-----------------------------------|
G|---7---7----7h9-------7-----------9------7---7----9-9-9-9-9-9-9-9---|
D|-----9---9------9--9-----9----------9--9---9----9-------------------|
A|--------------------------------------------------------------------|
E|--------------------------------------------------------------------|
Acordes para:

    0 comentários

      mostrar mais comentários

      Conseguiu tocar?

      21tocaram2ainda não

      Grave um vídeo tocando Donzela e mande pra gente!

      00:00 / 00:00
      outros vídeos desta música
      repetirqualidadeautomática
      Outro vídeos desta música
        00:00 / 00:00
        automática
        OK