Cifra Club

Ilha

Luan Santana

Cifra: Principal (violão e guitarra)
tom: F (forma dos acordes no tom de D) Capotraste na 3ª casa
[Intro] Bm  D2  G  Em

[Tab - Solo Intro] 

Parte 1 De 2
               Bm       D2        G        Em
E|------------------------------------------|
B|--3p2----2-2h3--3-3/5-3-----5-5/7----8---5|
G|--4----4---------------------------7---4--|
D|--4----------------------7----------------|
A|------------------------------------------|
E|------------------------------------------|
  p.m.

Parte 2 De 2
E|------------------------------------------|
B|--3/5/3-----------------------------------|
G|------------------------------------------|
D|------------------------------------------|
A|------------------------------------------|
E|------------------------------------------|

[Primeira Parte] 

D2                                 A4  A
   Quero que prometa que se comprometa
                                      Bm
A ir procurar outro amor em outro planeta
                                   G
Pra que eu não te veja sentada na mesa
                                    D2
Rindo à toa enquanto outra boca te beija
        A4  A
Ai, ai, ah

[Pré-Refrão] 

 Bm                  G
Vou engolir meu coração pra me amar por dentro
  D2           
Que nós dois sabemos que tanto sofrimento
A4
É perda de tempo, é perda de tempo
 Bm                   G
Vou transformar decepção em novo começo
   D2         
O passado é um erro, o presente é só acerto
  A4
Amor, eu te prometo

[Refrão] 

                 Bm
Também vou procurar outro amor em outro planeta
  G    
Guarda o seu ciúme em qualquer gaveta
D                                          A4
  Primeiro a gente peita, depois a gente aceita
                        Bm
Que amores vêm, amores vão
                            G
Cê vai pro céu, volta pro chão
                                     A
E quando tá pra se afogar no mar da vida
        G           A4              Bm
Vem alguém, vem alguém, que torna a ilha

[Solo] Bm  G  D2  F#m

[Tab - Solo] 

Parte 1 De 2
             Bm       G        D2         F#m
E|------------------------------------------|
B|--3p2----2h3--3-5-5/7----8---7------7/2-2-|
G|-------4---------------7---7------7-------|
D|------------------------------------------|
A|------------------------------------------|
E|------------------------------------------|

Parte 2 De 2
E|------------------------------------------|
B|-x-x-5/7/5-x-x-3/5/3----------------------|
G|-x-x-------x-x----------------------------|
D|-x-x-------x-x----------------------------|
A|------------------------------------------|
E|------------------------------------------|

[Pré-Refrão] 

 Bm                  G
Vou engolir meu coração pra me amar por dentro
  D2           
Que nós dois sabemos que tanto sofrimento
A4    
É perda de tempo, é perda de tempo
 Bm                   G
Vou transformar decepção em novo começo
   D2         
O passado é um erro, o presente é só acerto
  A4    
Amor, eu te prometo

[Refrão] 

                 Bm
Também vou procurar outro amor em outro planeta
 G    
Guarda o seu ciúme em qualquer gaveta
D                                          A4   A
  Primeiro a gente peita, depois a gente aceita
                        Bm
Que amores vêm, amores vão
                            G
Cê vai pro céu, volta pro chão
                                     A4
E quando tá pra se afogar no mar da vida
        G           A4                 
Vem alguém, vem alguém

                 Bm
Também vou procurar outro amor em outro planeta
  G    
Guarda o seu ciúme em qualquer gaveta
D                                          A
  Primeiro a gente peita, depois a gente aceita
                        Bm
Que amores vêm, amores vão
                            G
Cê vai pro céu, volta pro chão
                                     A
E quando tá pra se afogar no mar da vida
        G           A               D
Vem alguém, vem alguém, que torna a ilha
00:00 / 00:00
Outros vídeos desta música
Repetir
Outros vídeos desta música
Composição de Luan Santana
Colaboração e revisão:
  • Gustavo Zanandrez
  • Anderson Lacerda
  • Murilo ferreira
33.619 exibições
  • Simplificar cifra
    • ½ Tom
    • A
    • Bb
    • B
    • C
    • Db
    • D
    • Eb
    • E
    • F
    • F#
    • G
    • Ab
  • Adicionar à lista

    0 comentários

    Ver todos os comentários

    Entre para oCifra Club PRO

    Tenha acesso a benefícios exclusivos no App e no Site

    • Chega de anúncios

    • Prioridade de compra em lançamentos

    • Mais recursos no app do Afinador

    • Atendimento Prioritário

    • Descontos nos produtos Cifra Club

    • Ajude a produzir mais conteúdo

    00:00 / 00:00

    Cifra Club Pro

    Aproveite o Cifra Club com benefícios exclusivos e sem anúncios
    Cifra Club Pro
    Aproveite o Cifra Club com benefícios exclusivos e sem anúncios
    OK