Notificações Amigos pendentes

      Luan Santana

      Meteoro

      673.115 exibições
      Tom: A
      A                         E                       F#m                    D
        Te dei o sol, te dei o mar  Pra ganhar seu coração  Você é raio de saudade
                     A                     E                              F#m
      Meteoro da paixão  Explosão de sentimentos  Que eu não puder acreditar
                  D
      Ah! como é bom poder te amar
      
      (solo)
      
      (parte 1)
      
      E|-----------------------|
      B|-----------------------|
      G|-------2-2-2-2-2-2-2-2-|
      D|-------2-2-2-2-2-2-2-2-|
      A|-0-2/4-----------------|
      E|-----------------------|
      
      
      (parte 2)
      
      E|-----------------|
      B|-3/5-5-5-5-5-5-5-|
      G|-2/4-4-4-4-4-4-4-|
      D|-----------------|
      A|-----------------|
      E|-----------------|
      
      
      (parte 3)
      
      E|-------2-0-2----|
      B|--3-----------2-|
      G|-2---1/2-1-2--2-|
      D|----------------|
      A|----------------|
      E|----------------|
      
      
      (parte 4)
      
      E|---------------|
      B|---------------|
      G|---2-2-2-2-2-2-|
      D|---2-2-2-2-2-2-|
      A|---------------|
      E|---------------|
      
      
      (parte 5)
      
      E|-----------------|
      B|-3/5-5-5-5-5-5-5-|
      G|-2/4-4-4-4-4-4-4-|
      D|-----------------|
      A|-----------------|
      E|-----------------|
      
      
      (parte 6)
      
      E|--------9-7-7/9-9\-5-|
      B|-3-------------------|
      G|2---7h9-9-7-7/9-9\-6-|
      D|---------------------|
      A|---------------------|
      E|---------------------|
      
      
      (primeira parte)
      
      A                        E             F#m              D                         A
        Depois que eu te conheci fui mais feliz  Você é exatamente o que eu sempre quis
                         E             F#m                   D
      ela se encaixa perfeitamente em mim  o nosso quebra-cabeça teve fim
      
      (segunda parte)
      
      E|-----10p9----12-----10p9---12-----10p9---12----------|
      B|---9------9-------9------9------9------9-------------|
      G|-9--------------9-------------9----------------------|
      D|-----------------------------------------------------|
      A|-----------------------------------------------------|
      E|-----------------------------------------------------|
      
      
      E|-------3------------5--------5-------5---------------|
      B|-----3---3----------5--------5-------5---------------|
      G|---3-------3------7------7---------7-----7-----------|
      D|-4--------------7------7---7-----7-----7---7---------|
      A|--------------5----------------5---------------------|
      E|-----------------------------------------------------|
      
      
      (A9 A)                               F#m      D9
        se for sonho não me acorde  eu preciso flutuar  pois só quem sonha
          E
      consegue alcançar
      
      A                         E                       F#m                    D
        Te dei o sol, te dei o mar  Pra ganhar seu coração  Você é raio de saudade
                     A                     E                              F#m
      Meteoro da paixão  Explosão de sentimentos  Que eu não puder acreditar
                  D
      Ah! como é bom poder te amar
      
      (1 e 2 partes) (refrão)
      
      (terceira parte)
      
      A      G#m F#m          E           D           A
        Tão veloz   quanto a luz; Teu Universo eu viajei;
              F#m         E            D            E
      Vem me guia, me conduz; Que pra sempre te amarei;
      
      (refrão 2x)
      
      (solo final)
      
      E|-------------------------------------------------5-------|
      B|----------------------3/5-5-5-5-5-5-5-----7--5-7---7-5---|
      G|-------2-2-2-2-2-2-2--2/4-4-4-4-4-4-4-5/7--------------7-|
      D|-------2-2-2-2-2-2-2-------------------------------------|
      A|-0-2/4---------------------------------------------------|
      E|---------------------------------------------------------|
      
      
      E|----------------------------------------|
      B|----------------------------------------|
      G|-6-6\4-4-----2--------------------------|
      D|---------2-4----------------------------|
      A|----------------------------------------|
      E|----------------------------------------|
      
      
        Composição: Sorocaba / Luiz Cosme BenícioColaboração e revisão:
        • Caroline
        • Hiago33

        Comentários 26

        140 .
        • Jhonatan Jhonatan: Em 29/09/2015 22:02

          Consegui Acordes Fáceis

        • maria maria: Em 17/04/2015 21:24

          affs

        • suellen suellen: Em 08/11/2014 14:57

          ficou ótimo ...agora vamo ver se a batida que eu coloquei combina :/

        • luis fernando silva correa luis fernando silva correa: Em 30/09/2013 14:33

          como tem qe ser a batida?

        • yaanbruno yaanbruno: Em 07/01/2013 18:44

          Aprendi a tocar mais eu não faço a pestana completa so uso o dedo 2 e 3 ;// ' fico até bão galera.

        • nickmack nickmack: Em 26/08/2012 12:53

          a musica é fogo , mas o cantor não vale nada , ele vem na nossa cidade e fala que a cidade parece favela corta essa seu biba perdeu sua fama

        • carlos_edu_fer carlos_edu_fer: Em 03/07/2012 12:49

          mais simples que isso
          ????
          noss

        • lobomau0005 lobomau0005: Em 10/06/2012 19:24

          ridículo, como toda essa renca de agrobregas que poluem e poem em decadencia a imagem do país. Que merda!

        • luiza_da_musica luiza_da_musica: Em 03/06/2012 19:30

          Conseguiiii valeu Gustavo Fofão!!!!!!!!!!

        140 cancelar
        0:00 / 0:00
        2 versões de baixo exibições contribuição e correção
        3 versões de Guitar Proformatodownloadscontribuição
        play/pausefechar subir/descer velocidade
        6ª corda E5ª corda A4ª corda D3ª corda G2ª corda B1ª corda E
          acordes
          publicidade
          fechar
          ok