Cifra Club

Meteoro

Luan Santana

Cifra: Principal
exibições 724.596
Tom: A
A                         E                       F#m                    D
  Te dei o sol, te dei o mar  Pra ganhar seu coração  Você é raio de saudade
               A                     E                              F#m
Meteoro da paixão  Explosão de sentimentos  Que eu não puder acreditar
            D
Ah! como é bom poder te amar

Solo:
Parte 1:
E|-----------------------|
B|-----------------------|
G|-------2-2-2-2-2-2-2-2-|
D|-------2-2-2-2-2-2-2-2-|
A|-0-2/4-----------------|
E|-----------------------|

Parte 2:
E|-----------------|
B|-3/5-5-5-5-5-5-5-|
G|-2/4-4-4-4-4-4-4-|
D|-----------------|
A|-----------------|
E|-----------------|

Parte 3:
E|-------2-0-2----|
B|--3-----------2-|
G|-2---1/2-1-2--2-|
D|----------------|
A|----------------|
E|----------------|

Parte 4:
E|---------------|
B|---------------|
G|---2-2-2-2-2-2-|
D|---2-2-2-2-2-2-|
A|---------------|
E|---------------|

Parte 5:
E|-----------------|
B|-3/5-5-5-5-5-5-5-|
G|-2/4-4-4-4-4-4-4-|
D|-----------------|
A|-----------------|
E|-----------------|

Parte 6:
E|--------9-7-7/9-9\-5-|
B|-3-------------------|
G|2---7h9-9-7-7/9-9\-6-|
D|---------------------|
A|---------------------|
E|---------------------|

Primeira Parte:
A                        E             F#m              D                         A
  Depois que eu te conheci fui mais feliz  Você é exatamente o que eu sempre quis
                   E             F#m                   D
ela se encaixa perfeitamente em mim  o nosso quebra-cabeça teve fim

Segunda Parte:
E|-----10p9----12-----10p9---12-----10p9---12----------|
B|---9------9-------9------9------9------9-------------|
G|-9--------------9-------------9----------------------|
D|-----------------------------------------------------|
A|-----------------------------------------------------|
E|-----------------------------------------------------|

E|-------3------------5--------5-------5---------------|
B|-----3---3----------5--------5-------5---------------|
G|---3-------3------7------7---------7-----7-----------|
D|-4--------------7------7---7-----7-----7---7---------|
A|--------------5----------------5---------------------|
E|-----------------------------------------------------|

(A9 A)                               F#m      D9
  se for sonho não me acorde  eu preciso flutuar  pois só quem sonha
    E
consegue alcançar

A                         E                       F#m                    D
  Te dei o sol, te dei o mar  Pra ganhar seu coração  Você é raio de saudade
               A                     E                              F#m
Meteoro da paixão  Explosão de sentimentos  Que eu não puder acreditar
            D
Ah! como é bom poder te amar

(1 e 2 partes) (refrão)

Terceira Parte:
A      G#m F#m          E           D           A
  Tão veloz   quanto a luz; Teu Universo eu viajei;
        F#m         E            D            E
Vem me guia, me conduz; Que pra sempre te amarei;

(refrão 2x)

Solo Final:
E|-------------------------------------------------5-------|
B|----------------------3/5-5-5-5-5-5-5-----7--5-7---7-5---|
G|-------2-2-2-2-2-2-2--2/4-4-4-4-4-4-4-5/7--------------7-|
D|-------2-2-2-2-2-2-2-------------------------------------|
A|-0-2/4---------------------------------------------------|
E|---------------------------------------------------------|

E|----------------------------------------|
B|----------------------------------------|
G|-6-6\4-4-----2--------------------------|
D|---------2-4----------------------------|
A|----------------------------------------|
E|----------------------------------------|
Acordes para:
    Colaboração e revisão:
    • Caroline
    • Hiago Rodrigues

    0 comentários

      mostrar mais comentários

      Conseguiu tocar?

      93tocaram2ainda não

      Grave um vídeo tocando Meteoro e mande pra gente!

      00:00 / 00:00
      outros vídeos desta música
      repetirqualidadeautomática
      Outro vídeos desta música
        00:00 / 00:00
        automática
        Capítulos
        • Início
        • Acordes da Introdução (refrão)
        • Tocando a Introdução (refrão)
        • Ensinando o ritmo da Introdução
        • Tocando a base do solo
        • Ensinando o ritmo da base do solo
        • Acordes da primeira parte
        • Tocando a primeira parte
        • Ensinando o ritmo da primeira parte
        • Acordes da segunda parte
        • Tocando a segunda parte
        • Ensinando o dedilhado da segunda parte
        • Tocando o refrão
        • Ensinando o ritmo do refrão
        • Acordes da terceira parte
        • Tocando a terceira parte
        • Ensinando o ritmo da terceira parte
        • Tocando o solo da introdução
        • Ensinando o solo da introdução (parte 1)
        • Ensinando o solo da introdução (parte 2)
        • Ensinando o solo da introdução (parte 3)
        • Ensinando o solo da introdução (parte 4)
        • Ensinando o solo da introdução (parte 5)
        • Ensinando o solo da introdução (parte 6)
        • Encerramento
        OK