Cifra Club

Sempre Com Você

Luan Santana

Cifra: Principal
exibições 374.647
Tom: C#
Intro:                              
E|--4--4--4--4\2--2--2--1--1-----|--2--2--2--2---2--2--2--2--|
B|--4--4--4--4\2--2--2--2--2-----|--2--2--2--2---2--2--2--2--|
G|-------------------------------|---------------------------|
D|-------------------------------|---------------------------|  (3x)
A|-------------------------------|---------------------------|
E|-------------------------------|---------------------------|
                              
E|--4--4--4--4\2--2--2--1--1-----|--2--2--2--2---4--4--4--4--|
B|--4--4--4--4\2--2--2--2--2-----|--2--2--2--2---4--4--4--4--|
G|-------------------------------|---------------------------|
D|-------------------------------|---------------------------|  (3x)
A|-------------------------------|---------------------------|
E|-------------------------------|---------------------------|

C#        Ab
E eu que achava que
Bbm           F#
a vida fosse só uma viagem
C#           Ab             Bbm        F#
que o mundo tinha me esquecido!
C#        Ab
E eu que achava que
Bbm            F#
o amor não existia pra todo mundo
C#       Ab           Bbm     F#
que era coisa de cinema!

Bbm           Ab/C
Ai você apareceu
      Fm              Bbm
com um olhar me convenceu
                   Ab
anjo de asas coloridas
   F#     Ab      C#
amor alem da vida!

Refrão:
          Ab          Bbm
Eu não resistia  tanto amor
           F#     Ab      C#
o meu coração se entregou
          Ab
E venha o que vier
    Bbm            F#      Ab    C#
eu vou estar pra sempre com você!

Solo: ( Bbm C# D#/C Bbm F# C# D#/C Bbm F# )

Bbm              Ab
Ai você apareceu
       Fm             Bbm
com um olhar me convenceu
                   Ab
anjo de asas coloridas
   F#     Ab      C#
amor alem da vida!

Refrão 2x:
          Ab          Bbm
Eu não resistia  tanto amor
           F#     Ab      C#
o meu coração se entregou
          Ab
E venha o que vier
    Bbm            F#      Ab    C#
eu vou estar pra sempre com você!

Solo: ( C# Ab Bbm F# C# D#/C Bbm F# )

Sempre com você!
Pra sempre com você!
Acordes para:

    0 comentários

      mostrar mais comentários

      Conseguiu tocar?

      19tocaram0ainda não

      Grave um vídeo tocando Sempre Com Você e mande pra gente!

      00:00 / 00:00
      outros vídeos desta música
      repetirqualidadeautomática
      Outro vídeos desta música
        00:00 / 00:00
        automática
        OK