Cifra Club

Aprenda

O son do ar

Luar na Lubre

Cifra: Principal (violão e guitarra)
tom: C
E|---0-1-0-1-3--1-3-5-3-1--|
B|-3---------------------3-|
G|-------------------------|
D|-------------------------|
A|-------------------------|
E|-------------------------|

E|-1--5--8--10-8--7-8-7-7--|
B|-------------------------|
G|-------------------------|
D|-------------------------|
A|-------------------------|
E|-------------------------|

E|-5--3-5------------------|
B|-------------------------|
G|-------------------------|
D|-------------------------|
A|-------------------------|
E|-------------------------|

E|---0-1-0-1-3--1-3-5-3-1--|
B|-3---------------------3-|
G|-------------------------|
D|-------------------------|
A|-------------------------|
E|-------------------------|

E|-1-3-1-0-----0-----------|
B|--------3-1-3--3---------|
G|-------------------------|
D|-------------------------|
A|-------------------------|
E|-------------------------|
   x2 todo lo anterior

1|5-3-1-0--0--0--0-1-3---1-0---0--0-0----------|
B|-------3--1--3-------------3---1----3--1-3---|
G|---------------------------------------------|
D|---------------------------------------------|
A|---------------------------------------------|
E|---------------------------------------------|

1|5-3-1-0--0--0--0-1-3--1-0-1-0--0-------------|
B|-------3--1--3---------------3---3--1--3~----|
G|---------------------------------------------|
D|---------------------------------------------|
A|---------------------------------------------|
E|---------------------------------------------|

y así se repite toda la canción entera formando una rueda
de las repeticiones que se quiera
Suerte y a practicar!
Compositor não encontrado.
1 exibições
    • ½ Tom
    • A
    • Bb
    • B
    • C
    • Db
    • D
    • Eb
    • E
    • F
    • F#
    • G
    • Ab
  • Adicionar à lista

    0 comentários

    Ver todos os comentários

    Conseguiu tocar?

    0 Tocaram 0 Ainda não

    Grave um vídeo tocando O son do ar e nos envie!

    00:00 / 00:00
    Outros vídeos desta música
    Repetir Qualidade Automático
    Outros vídeos desta música
    00:00 / 00:00
    Automático

    Cifra Club Pro

    Aproveite o Cifra Club com benefícios exclusivos e sem anúncios
    Cifra Club Pro
    Aproveite o Cifra Club com benefícios exclusivos e sem anúncios
    OK