Cifra Club

I Loveando Tu

Lucas Lucco

Cifra: Principal (violão e guitarra)
tom: G
[Intro]  G  Em7  C  D

        G
Olha bebê como eu tô
                          Em7
Nem faz uma semana que a gente topou
E eu não sei pensar em nada
C
  Eu não faço mais nada
         D                        D4(7/9)
Só dá você no meu mundo e não é caô

   G
Depois que tu chegou
Eu to de bem com a vida
   Em7
Depois que tu brotou
         C
Parei de
Vou te falar inglês
                      G
Pra tu ver minha ousadia
         D
Oh linda

    G
Eu to I loveando tu, I loveando
 Em7
To I loveando tu, I loveando
 C
To I loveando tu, I loveando
 D
To I loveando pra chuchu
    G
Eu to I loveando tu, I loveando
 Em7
To I loveando tu, I loveando
 C
To I loveando tu, I loveando
 D
To I loveando pra chuchu

[Solo]  G  Em7  C  D

E|---------------------------------------------------------|
B|--------10/12-10-8-10/12~---------10/12-10-8~------------|
G|--7-7-7-----------------------7-7------------------------|
D|---------------------------------------------------------|
A|---------------------------------------------------------|
E|---------------------------------------------------------|

E|---------------------------------------------------------|
B|--------10/12-10-8-10/12~---------10/12-10-8~------------|
G|----7-7-----------------------7-7------------------------|
D|---------------------------------------------------------|
A|---------------------------------------------------------|
E|---------------------------------------------------------|

E|---------------------------------------------------------|
B|--------12/13-12-10-12/13~--------12/13-12-10~-----------|
G|--9-9-9-----------------------9-9------------------------|
D|---------------------------------------------------------|
A|---------------------------------------------------------|
E|---------------------------------------------------------|

E|---------------------------------------------------------|
B|-/15-15-15-15/17-15-13-12--15--15-13--13-12--12-10--10-8-|
G|---------------------------------------------------------|
D|---------------------------------------------------------|
A|---------------------------------------------------------|
E|---------------------------------------------------------|

   G
Depois que tu chegou
Eu to de bem com a vida
   Em7
Depois que tu brotou
         C
Parei com a
Vou te falar inglês
                      G
Pra tu ver minha ousadia
         D
Oh linda

    G
Eu to I loveando tu, I loveando
 Em7
To I loveando tu, I loveando
 C
To I loveando tu, I loveando
 D
To I loveando pra chuchu
    G
Eu to I loveando tu, I loveando
 Em7
To I loveando tu, I loveando
 C
To I loveando tu, I loveando
 D
To I loveando pra chuchu

    G
Eu to I loveando tu, I loveando
 Em7
To I loveando tu, I loveando
 C
To I loveando tu, I loveando
 D
To I loveando pra chuchu
    G
Eu to I loveando tu, I loveando
 Em7
To I loveando tu, I loveando
 C
To I loveando tu, I loveando
 D
To I loveando pra chuchu

[Final]  G
00:00 / 00:00
Outros vídeos desta música
Repetir
Outros vídeos desta música
Composição de Kito / Léo Soares / Lucas Lucco / Theo Rodrigues / Thi Soares
Colaboração e revisão:
  • Lucas Kappaun
26.299 exibições
    • ½ Tom
    • A
    • Bb
    • B
    • C
    • Db
    • D
    • Eb
    • E
    • F
    • F#
    • G
    • Ab
  • Adicionar à lista

    0 comentários

    Ver todos os comentários

    Entre para oCifra Club PRO

    Tenha acesso a benefícios exclusivos no App e no Site

    • Chega de anúncios

    • Prioridade de compra em lançamentos

    • Mais recursos no app do Afinador

    • Atendimento Prioritário

    • Descontos nos produtos Cifra Club

    • Ajude a produzir mais conteúdo

    00:00 / 00:00

    Cifra Club Pro

    Aproveite o Cifra Club com benefícios exclusivos e sem anúncios
    Cifra Club Pro
    Aproveite o Cifra Club com benefícios exclusivos e sem anúncios
    OK