Enviar cifraEntrar

Nem Te Conto

Lucas Lucco

Cifra: Principal
exibições 176.586
Tom: C
Intro:


  Am F C G Am
E|----------------------------------------------------|
B|-------------------------------5-5/6-5-3------------|
G|--5-----5-----5---5-----5----------------4-4/5-4-2--|
D|----7-7---7-7---7---7-7-----5-----------------------|
A|----------------------------------------------------|
E|----------------------------------------------------|


  Am F C F C G
E|----------------------------------------------------|
B|--------5-------------5---------6-----6-----6-------|
G|--5-------7-5-4-5-------7-5-4-5---5-----5-----------|
D|----7-7-----------7-7---------------7-----7---------|
A|----------------------------------------------------|
E|----------------------------------------------------|


E|----------------------------------------------------|
B|--------5-------5---5h6-5-------5---5h6-------------|
G|--4-5-7---5-5-7---5-------4-5-7---5-----7---7-7-7---|
D|----------------------------------------------------|
A|----------------------------------------------------|
E|----------------------------------------------------|


Am
Xi...

Riff:


E|-17-17-17-17-17------|
B|-17-17-17-17-17------|
G|-17-17-17-17-17------|
D|---------------------|
A|---------------------|
E|---------------------|


Am
Tem um sogro bravo na parada
F                                      G
Ele descobriu que sua filha amada já não é mais moça!
                                 Am       G
E o culpado disso tudo sou eu sou eu sou eu
Am
Já marcaram até a reunião
F
Tão querendo saber qual minha intenção
G
E que o papai só anda armado
   Am                     G
E que daquela casa eu só saio casado

Que papo careta
F                                   Am
Esse de fazer amor só depois do casamento
G
Assim eu não aguento,
F                  G                    F            G
Vai me desculpar ,mas do bolo eu já provei há muito tempo
                     Am
Ahh se ele soubesse o que a filha dele faz
                 F
Entre 4 paredes ela é doida, ela é demais!
                       G
Que me enlouquece quase me deixa doido
                      F                G
E se me pergunta o que eu já fiz com ela

                             Am
Sogrão eu nem te conto, nem te conto, nem te conto,
                              F
Sogrão eu nem te conto, nem te conto, nem te conto
                  C
Sogrão eu nem te conto, nem te conto , nem te conto
                         G
Sogrão eu nem te conto...
  • 1
  • 2
  • 3
  • 4
  • 5
  • 6
  • 7
  • 8
  • 9
  • 10
  • 11
  • 12
    Acordes para:

      0 comentários

        mostrar mais comentários

        Conseguiu tocar?

        22tocaram0ainda não

        Grave um vídeo tocando Nem Te Conto e mande pra gente!

        00:00 / 00:00
        outros vídeos desta música
        repetirqualidadeautomática
        • automática
        Outro vídeos desta música
          00:00 / 00:00
          automática
          • automática
          Acordes para:violão e guitarra
          dificuldadeexibiçõescontribuições
          fecharplay/pause subir/descer velocidade
            acordes
            fechar
            OK
            Feedback