Cifra Club

Príncipe

Lucas Lucco

Cifra: Principal (violão e guitarra)
tom: G
[Intro] G  C9  Em  D4 C9

[Solo]

E|--2--2--2--2--------------2--2--2--2--------------|
B|---0--0--0--0--3--3--3--3--0--0--0--0--3--3--3--3-|
G|----------------4--4--4--4--------------4--4--4--4|
D|--------------------------------------------------|
A|--------------------------------------------------|
E|--------------------------------------------------|

E|---3--3--5--5--7--7--3--3--0--0--0--0--0--0--0--0-|
B|----0--0--0--0--0--0--0--0--0--0--0--0--0--0--0--0|
G|--------------------------------------------------|
D|--------------------------------------------------|
A|--------------------------------------------------|
E|--------------------------------------------------|

        G
E aí, olá!
                   D4
Você me esperava, né?
                 Em
Prazer sou seu príncipe
            C9
Cheio de defeitos!

   G                            D4
Infelizmente sou só um cara normal
               Em
Sem nenhum castelo
             C9
Nem cavalo branco

Em
Eu posso te fazer sofrer
C9
Eu posso te fazer chorar
              G
Mas eu tô tentando
               D4
Tentando melhorar

 Em
Quero escrever a nossa história
 C9
Você, princesa,vamo agora
          G
Será que rola?
              D4
Sem final o que me diz?
          C9
Só ser feliz!

          G                      D4
Eu quero ser, seu príncipe encantando
                C9
Seu eterno namorado
                         G
Te acordar com um beijo meu

          G                    D4
Eu quero ser, seu príncipe perfeito
                      C9
Se não for eu dou um jeito
                            G     D4
Você sabe eu sempre dou um jeito

     G            D4           Em            C9
E|----------------------------------------------------|
B|-7--8--0--3---7--8--0--3---7--8--0--3----3--3--3--3-|
G|----------------------------------------------------|
D|----------------------------------------------------|
A|----------------------------------------------------|
E|----------------------------------------------------|

          G                      D4
Eu quero ser, seu príncipe encantando
                C9
Seu eterno namorado
                         G
Te acordar com um beijo meu

          G                    D4
Eu quero ser, seu príncipe perfeito
                      C9
Se não for eu dou um jeito
                            G     D4
Você sabe eu sempre dou um jeito

[Final] G  D4  C9  G
00:00 / 00:00
Outros vídeos desta música
Repetir
Outros vídeos desta música
Composição de Lucas Lucco / Paulim Lucco / Peagá
282.657 exibições
    • ½ Tom
    • A
    • Bb
    • B
    • C
    • Db
    • D
    • Eb
    • E
    • F
    • F#
    • G
    • Ab
  • Adicionar à lista

    0 comentários

    Ver todos os comentários

    Conseguiu tocar?

    52 Tocaram 6 Ainda não

    Grave um vídeo tocando Príncipe e nos envie!

    Entre para oCifra Club PRO

    Tenha acesso a benefícios exclusivos no App e no Site

    • Chega de anúncios

    • Prioridade de compra em lançamentos

    • Mais recursos no app do Afinador

    • Atendimento Prioritário

    • Descontos nos produtos Cifra Club

    • Ajude a produzir mais conteúdo

    00:00 / 00:00

    Cifra Club Pro

    Aproveite o Cifra Club com benefícios exclusivos e sem anúncios
    Cifra Club Pro
    Aproveite o Cifra Club com benefícios exclusivos e sem anúncios
    OK