Cifra Club

Vai Vendo

Lucas Lucco

Cifra: Principal (violão e guitarra)
tom: F
[Intro] Dm  C

Parte 1 de 2
   Dm
E|--------0-1----------0-1------------------|
B|-3-3-3--------3-3-3-----------------------|
G|-2------------2---------------------------|
D|-0------------0---------------------------|
A|------------------------------------------|
E|------------------------------------------|

Parte 2 de 2
   C
E|----------0-------------0-----------------|
B|-1-1-1--3-----1--1-1--3-------------------|
G|-0------------0---------------------------|
D|-2------------2---------------------------|
A|-3------------3---------------------------|
E|------------------------------------------|

[Primeira Parte]

        Dm
Você achou que eu ia sofrer
        Bb9
Mas eu tinha meu plano b
         C
Sabe de nada
          Am7
A minha agenda tava disfarçada
   Dm
Lugar de homem era mulher
       Bb9
Restaurante era cabaré
         C             Am7
Sabe de nada, foi enganada  

        Dm
Você achou que eu ia sofrer
        Bb9
Mas eu tinha meu plano b
         C
Sabe de nada
          Am7
A minha agenda tava disfarçada
   Dm
Lugar de homem era mulher
       Bb9
Restaurante era cabaré
         C
Sabe de nada, foi enganada  

[Pré-Refrão]

     F           G
Comprou essa ilusão
                                   C
Achou que eu ia me afundar na solidão

[Refrão]
                                                      
Esse arrocha é pra você 
                               C
Que achou que eu tava aqui sofrendo 
    
Vai vendo 
Dm
  Eu tô no solto na balada
                  C
Aqui o coro tá comendo 
    
Vai vendo 
Dm
  Enquanto você ta em casa
                      C
Eu tô aqui no bar bebendo 
    
Vai vendo 
Dm
  Postando fotos com as gatas
                   C
Pra você ficar sabendo
     
Vai vendo, vai vendo

( Dm  C  F  Em  Dm  C )
( Dm  C )

[Primeira Parte]

        Dm
Você achou que eu ia sofrer
        Bb9
Mas eu tinha meu plano b
         C
Sabe de nada
          
A minha agenda tava disfarçada
   Dm
Lugar de homem era mulher
       Bb9
Restaurante era cabaré
         C
Sabe de nada, foi enganada  

[Segunda Parte]

     F           G
Comprou essa ilusão
                                   C
Achou que eu ia me afundar na solidão

[Refrão Final]
                                                      
Esse arrocha é pra você 
                               C
Que achou que eu tava aqui sofrendo 
    
Vai vendo 
Dm
  Eu tô no solto na balada
                  C
Aqui o coro tá comendo 
    
Vai vendo 
Dm
  Enquanto você ta em casa
                      C
Eu tô aqui no bar bebendo 
    
Vai vendo 
Dm
  Postando fotos com as gatas
                   C
Pra você ficar sabendo
     
Vai vendo
              
Dm
  Esse arrocha é pra você 
                               C
Que achou que eu tava aqui sofrendo 
    
Vai vendo 
Dm                     F
  Eu tô no solto na balada
   Em   C    Em   C
Aqui o coro tá comendo 
    
Vai vendo 
Dm                     F
  Enquanto você ta em casa
    Em   C     Em    C
Eu tô aqui no bar bebendo 
    
Vai vendo 
Dm
  Postando fotos com as gatas
                   C
Pra você ficar sabendo
     
Vai vendo, vai vendo

Dm
  Enquanto você tá em casa
                     C
Eu tô aqui no bar bebendo

Parte 1 de 2
   Dm           Dm7
E|--------0-1-------------------------------|
B|-3-3-3--------6-6-6--8-5------------------|
G|-2------------5---------------------------|
D|-0------------7---------------------------|
A|--------------5---------------------------|
E|------------------------------------------|

Parte 2 de 2
                            C
E|--------------------------0---------------|
B|----x-x-----x----x-x------1---------------|
G|----x-x-----x----x-x------0---------------|
D|----x-x-----x----x-x------2---------------|
A|-x-------x----x-------x---3---------------|
E|-x-------x----x-------x-------------------|
00:00 / 00:00
Outros vídeos desta música
Repetir
Outros vídeos desta música
Composição de Flavinho / Lucas Lucco / Magno Santana / Tierry
634.073 exibições
  • Simplificar cifra
    • ½ Tom
    • A
    • Bb
    • B
    • C
    • Db
    • D
    • Eb
    • E
    • F
    • F#
    • G
    • Ab
  • Adicionar à lista

    0 comentários

    Ver todos os comentários

    Conseguiu tocar?

    48 Tocaram 0 Ainda não

    Grave um vídeo tocando Vai Vendo e nos envie!

    Entre para oCifra Club PRO

    Tenha acesso a benefícios exclusivos no App e no Site

    • Chega de anúncios

    • Prioridade de compra em lançamentos

    • Mais recursos no app do Afinador

    • Atendimento Prioritário

    • Descontos nos produtos Cifra Club

    • Ajude a produzir mais conteúdo

    00:00 / 00:00
    Capítulos
    • Tocando a Música
    • Dicas Iniciais / Equipamentos
    • Acordes da Introdução
    • Tocando a Introdução
    • Ensinando a Introdução
    • Acordes da Primeira e Segunda Parte
    • Tocando a Primeira e Segunda Partes
    • Ensinando a Primeira e Segunda Partes
    • Acordes do Refrão
    • Tocando o Refrão
    • Ensinando o Refrão
    • Encerramento
    • Ficha Técnica

    Cifra Club Pro

    Aproveite o Cifra Club com benefícios exclusivos e sem anúncios
    Cifra Club Pro
    Aproveite o Cifra Club com benefícios exclusivos e sem anúncios
    OK