Cifra Club

Isaias 9

Lucas Souza

Cifra: Principal
exibições 62.132
Tom: C
C     G            Am
Um menino nasceu
    F    C     G       Am
como um filho se nos deu
 F              C
ele é o próprio Deus
  G           Am
e vive em mim
  F             C
debaixo de suas asas
   G        Am
eu me escondi
F        C/E    Dm
e o seu nome é   maravilhoso
F            Am        G
glória ao príncipe da paz

 Am               Em
O céu começa a se abrir
        Am                 F
toda a terra se dobrou a ti
C                 Em
Cristo, Rei dos reis
           F
veio nos buscar
Am                Em
Leva-nos em tuas mãos
        Am            F
pelas portas da cidade
C              Em
na nova Jerusalém
                 F
tua noiva vai entrar

           Am       Em                     Am                    F
E|--------------------------------------9---------------------------|
B|---------------------------------9---------9/11--9----------------|
G|------------6----8p6-8-8/10---10---10---10---------10-8-10-10/11--|
D|------6-------8---------------------------------------------------|
A|--6h8---6h8-------------------------------------------------------|
E|------------------------------------------------------------------|

        C             G               Am F
E|-----10---------11-11-----------------10----------11-11----------------|
B|--10----10---7--11-11-11-7---7-----------10-7---7-11-11-11-7---7-------|
G|-----------9---------------9---9--------------9--------------9---9-----|
D|---------------------------------9---------------------------------9---|
A|-----------------------------------------------------------------------|
E|-----------------------------------------------------------------------|
Acordes para:
    Colaboração e revisão:

    0 comentários

      mostrar mais comentários

      Conseguiu tocar?

      6tocaram0ainda não

      Grave um vídeo tocando Isaias 9 e mande pra gente!

      00:00 / 00:00
      outros vídeos desta música
      repetirqualidadeautomática
      Outro vídeos desta música
        00:00 / 00:00
        automática
        OK