Cifra Club

Luces No Belicas

Lucybell

Cifra: Principal (violão e guitarra)
Selo Cifra Club: esta cifra foi revisada para atender aos critérios oficiais da nossa Equipe de Qualidade.
tom: G
Intro:
   E5    G5         E5    G5        E5    G5          B5 A5 B5
e|----------------|----------------|----------------|----------||
B|----------------|----------------|----------------|----------||
G|----------------|----------------|----------------|----------||
D|----------------|----------------|----------------|----------||
A|-2--2--5--5--5--|-2--2--5--5--5--|-2--2--5--5--5--|-9--7--9--||
E|-0--0--3--3--3--|-0--0--3--3--3--|-0--0--3--3--3--|-7--5--7--||
   E5    G5         E5    G5        E5    G5          A5 G5 A5
e|----------------|----------------|----------------|------------||
B|----------------|----------------|----------------|------------||
G|----------------|----------------|----------------|------------||
D|----------------|----------------|----------------|------------||
A|-2--2--5--5--5--|-2--2--5--5--5--|-2--2--5--5--5--|-7--5--777--||
E|-0--0--3--3--3--|-0--0--3--3--3--|-0--0--3--3--3--|-5--3--555--||

Tanto resguardarse
Entre tus pelos de hierba
Llevo a mis ojos aun en sangre
A prender fuego y no mentir
   (Em*) Con Palm Mute
e|--7--||  Nota Opcional: e|--7--|| 
Outros vídeos desta música
    852 exibições
      • ½ Tom
      • A
      • Bb
      • B
      • C
      • Db
      • D
      • Eb
      • E
      • F
      • F#
      • G
      • Ab
    • Adicionar à lista

    Afinação da cifra

    Afinador online

      0 comentários

      Ver todos os comentários

      Conseguiu tocar?

      0Tocaram0Ainda não

      Grave um vídeo tocando Luces No Belicas e nos envie!

      Toque também

      1. Imagem do artista Los BunkersNada Nuevo Bajo El Sol Los Bunkers
      2. Imagem do artista Los TresHe Barrido El Sol Los Tres
      3. Imagem do artista Los PrisionerosTren Al Sur Los Prisioneros
      4. Imagem do artista La LeyMentira La Ley

      Entre para o Cifra Club PRO

      Tenha acesso a benefícios exclusivos no App e no Site

      • Chega de anúncios

      • Badges exclusivas

      • Mais recursos no app do Afinador

      • Atendimento Prioritário

      • Aumente seu limite de lista

      • Ajude a produzir mais conteúdo

      Cifra Club Pro

      Aproveite o Cifra Club com benefícios exclusivos e sem anúncios
      Cifra Club Pro
      Aproveite o Cifra Club com benefícios exclusivos e sem anúncios
      OK