Cifra Club

Runaway Love

Ludacris

Cifra: Principal (violão e guitarra)
Selo Cifra Club: esta cifra foi revisada para atender aos critérios oficiais da nossa Equipe de Qualidade.
tom: Fm
E|E|-------------------------------------------------------------------------------||
                             RUNAWAY LOVE - Ludacris Ft. Mary J Bige
E|E|-------------------------------------------------------------------------------||
Tabbed by: Coca30stmMCRFan
Email:

Tuning:standard

Alright everyone I know that this isnt all on guitar but I like the song and I though 
may be interested in it.
These are the chords played throughout the majority of the song

E|-9~-----8~-----6~----4~----------------------------------------------------|
B|-11~----9~-----6~----6~----------------------------------------------------|
G|-10~----10~----6~----5~----------------------------------------------------|
D|---------------------------------------------------------------------------|
A|---------------------------------------------------------------------------|
E|---------------------------------------------------------------------------|

This is the instument (i think its a synthesizer) that sounds like you would use the 
bar. It appears during the verses mostly
E|-(9)-8-6-------------------------------------------------------------------|
B|---------9-8-6~--4/5/6~-4/5/6~---------------------------------------------|
G|---------------------------------------------------------------------------|
D|---------------------------------------------------------------------------|
A|---------------------------------------------------------------------------|
E|---------------------------------------------------------------------------|
Outros vídeos desta música
    24 exibições
      • ½ Tom
      • Am
      • Bbm
      • Bm
      • Cm
      • C#m
      • Dm
      • Ebm
      • Em
      • Fm
      • F#m
      • Gm
      • G#m
    • Adicionar à lista

    Afinação da cifra

    Afinador online

      0 comentários

      Ver todos os comentários

      Entre para o Cifra Club PRO

      Tenha acesso a benefícios exclusivos no App e no Site

      • Chega de anúncios

      • Badges exclusivas

      • Mais recursos no app do Afinador

      • Atendimento Prioritário

      • Aumente seu limite de lista

      • Ajude a produzir mais conteúdo

      Cifra Club Pro

      Aproveite o Cifra Club com benefícios exclusivos e sem anúncios
      Cifra Club Pro
      Aproveite o Cifra Club com benefícios exclusivos e sem anúncios
      Ops (: Contenido disponible sólo en portugués.
      OK