Cifra Club

Aprenda

Fur Elise

Ludwig Van Beethoven

Cifra: Simplificada (violão e guitarra)
Já pensou em usar uma coleção de roupas do Cifra Club? Responda as perguntas abaixo e nos ajude nessa missão! →
tom: D
          E---0---0---0-------------------------------------
          B-----4---4---0-3-1-----------------------0--1----
          G--------------------2------2--4----1---1---------
          D------------------------2------------2-----------   4x
          A-------------------------------------------------
          E-------------------------------------------------

          E----------0-------1-0----------0--------------------------------0---0---0---0---0---0-
          B---0-1-3--------1-----3-----0-----3--1----------3-1-0---------------------4---4---4---
          G-------------------------------------------2------------------------------------------
          D-----------------------------------------2---2------------2-2-----2---2---------------
          A--------------------------------------------------------------------------------------
          E--------------------------------------------------------0-----------------------------

          E---0---0---0-----------------------------------------
          B-----4---4---0-3-1-----------------------1--0--------
          G--------------------2------2--4----1---1---------2---
          D------------------------2------------2-----------2---
          A-------------------------------------------------0---
          E-----------------------------------------------------

Composição de Ludwig van Beethoven
Colaboração e revisão:
  • Eliasafe Souza
9.848 exibições
    • ½ Tom
    • A
    • Bb
    • B
    • C
    • Db
    • D
    • Eb
    • E
    • F
    • F#
    • G
    • Ab
  • Adicionar à lista

    0 comentários

    Ver todos os comentários
    00:00 / 00:00
    Outros vídeos desta música
    Repetir Qualidade Automático
    Outros vídeos desta música
    00:00 / 00:00
    Automático

    Cifra Club Pro

    Aproveite o Cifra Club com benefícios exclusivos e sem anúncios
    Cifra Club Pro
    Aproveite o Cifra Club com benefícios exclusivos e sem anúncios
    OK