Cifra Club

Aprenda

Para Elisa

Ludwig Van Beethoven

Cifra: Principal (violão e guitarra)
Quer fazer aulas de música com a gente? Responda essas perguntas
e nos ajude nesse projeto! →
tom: G
E|0--0---0----------------------------------------0-----0-----0--------------------------|
B|--4--4---0--3--1--------------0--------0--1--------4-----4-----0--3--1--------------0--|
G|------------------2--------2--------1-----------------------------------2--------2-----|
D|------------------------2--------2-----------2--------------------------------2--------|
A|---------------------3-----------------------------------------------------3-----------|
E|---------------------------------------------------------------------------------------|

E|------------0-----0-----0----------------------------------------0-----0-----0---------------|
B|---1--0--------4-----4-----0--3--1--------------0--------0--1-------4-----4-----0--3--1------|
G|---------2--------------------------2--------2--------1----------------------------------2---|
D|2-----------------------------------------2--------2-----------2-----------------------------|
A|---------------------------------------3----------------------------------------------------3|
E|---------------------------------------------------------------------------------------------|

E|------------------------------0-----1--0--------0-------------0-----0-----0---|
B|------0-----1--0-----0--1--3--------------3--------3--1--0--------------------|
G|---2--------------2--------------0-----------3--------------------------------|
D|2--------2--------------------------------------------------2----2-----2-----2|
A|------------------------------------------------------------------------------|
E|------------------------------------------------------------------------------|

E|0-----0-----0-----0-----0-----0--------------------------------------------------0-----0-----|
B|---4-----4-----4-----4-----4-----0--3--1--------------0--------0--------0--1--------4-----4--|
G|------------------------------------------2--------2-----------------1-----------------------|
D|------------------------------------------------2--------2--------2-----------2--------------|
A|---------------------------------------------3-----------------------------------------------|
E|---------------------------------------------------------------------------------------------|

E|0------------------------------------|
B|---0--3--1--------------0-----1--0---|
G|------------2--------2--------------2|
D|------------------2--------2---------|
A|---------------3---------------------|
E|-------------------------------------|

Compositor não encontrado.
Colaboração e revisão:
  • Pedro Henrique
11.582 exibições
    • ½ Tom
    • A
    • Bb
    • B
    • C
    • Db
    • D
    • Eb
    • E
    • F
    • F#
    • G
    • Ab
  • Adicionar à lista

    0 comentários

    Ver todos os comentários
    00:00 / 00:00
    Outros vídeos desta música
    Repetir Qualidade Automático
    Outros vídeos desta música
    00:00 / 00:00
    Automático

    Cifra Club Pro

    Aproveite o Cifra Club com benefícios exclusivos e sem anúncios
    Cifra Club Pro
    Aproveite o Cifra Club com benefícios exclusivos e sem anúncios
    OK