Cifra Club

Despacito (part. Daddy Yankee)

Luis Fonsi

Cifra: Principal
exibições 1.389.288
Tom: D
[Intro – Parte 1]

Parte 1
   Bm
E|---2-----2-----2-----2--------------------|
B|-----3-----3-----3-----3------------------|
G|-4-----4-----4-----4----------------------|
D|------------------------------------------|
A|------------------------------------------|
E|------------------------------------------|

Parte 2
   G
E|---3-----3-----3-----3--------------------|
B|-----3-----3-----3-----3------------------|
G|-4-----4-----4-----4----------------------|
D|------------------------------------------|
A|------------------------------------------|
E|------------------------------------------|

Parte 3
   D                        A
E|---2-----2-----2-----2-----9--------------|
B|-----3-----3-----3-----3--10--------------|
G|-2-----2-----2-----2-------9--------------|
D|------------------------------------------|
A|------------------------------------------|
E|------------------------------------------|

[Intro – Parte 2]

Parte 1
   Bm             G
E|-7----------------3-----3-----------------|
B|-7-7-----7------3---3-----3---------------|
G|-7---7-----7----4-----4-----4-------------|
D|-9-----9-----9--5-------------------------|
A|-9--------------5-------------------------|
E|-7--------------3-------------------------|

Parte 2
   D              A
E|-2-2-----2------5-------------------------|
B|-3---3-----3----5-------------------------|
G|-2-----2-----2--6-------------------------|
D|-4--------------7-------------------------|
A|-5--------------7-------------------------|
E|----------------5-------------------------|

Parte 3
E|-----7-10-9-7-6-7~------------------------|
B|---7--------------------------------------|
G|-7----------------------------------------|
D|------------------------------------------|
A|------------------------------------------|
E|------------------------------------------|

Parte 4
E|-7-9-10-12-14----14~-----14~--------------|
B|-7------------15-----15~------------------|
G|-7----------------------------------------|
D|------------------------------------------|
A|------------------------------------------|
E|------------------------------------------|

[Intro – Parte 3]

Parte 1             
                 Bm
E|------10---9---7-7-7-7-7-7-7-7------------|
B|---------------7-7-7-7-7-7-7-7------------|
G|-9/11----9---7-7-7-7-7-7-7-7-7------------|
D|---------------9-9-9-9-9-9-9-9------------|
A|---------------9-9-9-9-9-9-9-9------------|
E|---------------7-7-7-7-7-7-7-7------------|         
                 ↓ ↑ ↑ ↓ ↑ ↓ ↓ ↑
Parte 2
   G              D
E|-3-3-3-3-3-3-3-3--2-2-2-2-2-2-2-2---------|
B|-3-3-3-3-3-3-3-3--3-3-3-3-3-3-3-3---------|
G|-4-4-4-4-4-4-4-4--2-2-2-2-2-2-2-2---------|
D|-5-5-5-5-5-5-5-5--0-0-0-0-0-0-0-0---------|
A|-5-5-5-5-5-5-5-5--------------------------| 
E|-3-3-3-3-3-3-3-3--------------------------|
   ↓ ↑ ↑ ↓ ↑ ↓ ↓ ↑  ↓ ↑ ↑ ↓ ↑ ↓ ↓ ↑
Parte 3
   A
E|-0-0-0-------10---9---7-------------------|
B|-2-2-2------------------------------------|
G|-2-2-2--9/11----9---7---------------------|
D|-2-2-2------------------------------------|
A|-0-0-0------------------------------------|
E|------------------------------------------|
   ↓ ↑ ↑

[Pré-refrão]

Parte 1
   Bm                G
E|---2---2----2---2----3---3---3---3--------|
B|---3---3----3---3----3---3---3---3--------|
G|---4---4----4---4----0---0---0---0--------|
D|-------4--------4----0---0---0---0--------|
A|-2---5----2---5--------2-------2----------|
E|-------------------3-------3--------------|

Parte 2
   D                 A
E|---2---2----2---2----0---0----0---0-------|
B|---3---3----3---3----2---2----2---2-------|
G|---2---2----2---2----2---2----2---2-------|
D|-0---4----0---4----------2--------2-------|
A|-------------------0---4----0---4---------|
E|------------------------------------------|

[Primeira Parte]

 Bm
Sí, sabes que ya llevo
           G
Un rato mirándote
    D                        A
Tengo que bailar contigo hoy
 Bm                               G
Vi que tu mirada ya estaba llamándome
      D                        A
Muéstrame el camino que yo voy


[Pré-refrão]

 Bm                                G
Tú, tú eres el imán y yo soy el metal
                                    D
Me voy acercando y voy armando el plan
                                 A
Solo con pensarlo se acelera el pulso

Bm
Ya, ya me está gustando 
              G
Más de lo normal
                                 D
Todos mis sentidos van pidiendo más

Esto hay que tomarlo
             A   (pausa)
Sin ningún apuro


[Refrão]

      Bm
Despacito
                                G
Quiero respirar tu cuello despacito
                           D
Deja que te diga cosas al oído

Para que te acuerdes 
                A  (pausa)
Si no estás conmigo

      Bm
Despacito
                                 G
Quiero desnudarte a besos despacito
                                D
Firmo en las paredes de tu laberinto

Y hacer de tu cuerpo 
               A   (pausa)
Todo un manuscrito


[Segunda Parte]

 Bm
Quiero ver bailar tu pelo
               G
Quiero ser tu ritmo

                     D
Que le enseñes a mi boca
                 A
Tus lugares favoritos

 Bm                               G
Déjame sobrepasar tus zonas de peligro
                     D
Hasta provocar tus gritos
                      A   (pausa)
Y que olvides tu apellido


[Terceira Parte]

                         Bm
Si te pido un beso, ven dámelo

Yo sé que estás pensándolo
                   G
Llevo tiempo intentándolo

Mami, esto es dando y dándolo
              D
Sabes que tu corazón 

Conmigo te hace bom-bom
               A
Sabes que esa beba
                     
Está buscando de mi bom-bom

                  Bm
Ven prueba de mi boca 

Para ver como te sabe
                        G
Quiero, quiero, quiero ver 

Cuanto amor a ti te cabe
              D
Yo no tengo prisa 

Yo me quiero dar el viaje
           A
Empecemos lento, después salvaje


[Quarta Parte]

            Bm
Pasito a pasito, suave suavecito
             G
Nos vamos pegando, poquito a poquito
              D
Cuando tú me besas con esa destreza
                A              (pausa)
Veo que eres malicia con delicadeza


            Bm
Pasito a pasito, suave suavecito
             G
Nos vamos pegando, poquito a poquito
              D
Y es que esa belleza es un rompecabezas
            A                  (pausa)
Pero pa montarlo aquí tengo la pieza


[Refrão]

      Bm
Despacito
                                G
Quiero respirar tu cuello despacito
                           D
Deja que te diga cosas al oído

Para que te acuerdes 
                A   (pausa)
Si no estás conmigo

      Bm
Despacito
                                 G
Quiero desnudarte a besos despacito
                                D
Firmo en las paredes de tu laberinto

Y hacer de tu cuerpo
               A  (pausa)
Todo un manuscrito


[Segunda Parte]

 Bm
Quiero ver bailar tu pelo
               G
Quiero ser tu ritmo
                     D
Que le enseñes a mi boca
                 A
Tus lugares favoritos

 Bm                               G
Déjame sobrepasar tus zonas de peligro
                     D
Hasta provocar tus gritos
                      A   (pausa)
Y que olvides tu apellido


[Refrão Final]

      Bm
Despacito

Vamos a hacerlo en una playa 
           G
En Puerto Rico

Hasta que las olas griten: 
         D
¡Ay, bendito!

Para que mi sello 
             A   (pausa)
Se quede contigo


[Quarta Parte]

            Bm
Pasito a pasito, suave suavecito
             G
Nos vamos pegando, poquito a poquito
                     D
Que le enseñes a mi boca
                 A
Tus lugares favoritos

            Bm
Pasito a pasito, suave suavecito
             G
Nos vamos pegando, poquito a poquito
                     D
Hasta provocar tus gritos
                      A
Y que olvides tu apellido

Despacito
Acordes para:
    Colaboração e revisão:

    0 comentários

      mostrar mais comentários

      Conseguiu tocar?

      97tocaram16ainda não

      Grave um vídeo tocando Despacito (part. Daddy Yankee) e mande pra gente!

      00:00 / 00:00
      outros vídeos desta música
      repetirqualidadeautomática
      Outro vídeos desta música
        00:00 / 00:00
        automática
        Capítulos
        • Tocando a música
        • Apresentação / Equipamentos
        • Acordes da Introdução 1
        • Tocando Introdução 1
        • Introdução: Parte 1
        • Introdução: Parte 1 - Parte 1 de 3
        • Introdução: Parte 1 - Parte 2 de 3
        • Introdução: Parte 1 - Parte 3 de 3
        • Acordes da Introdução 2
        • Tocando Introdução 2
        • Introdução: Parte 2
        • Introdução: Parte 2 - Parte 1 de 4
        • Introdução: Parte 2 - Parte 2 de 4
        • Introdução: Parte 2 - Parte 3 de 4
        • Introdução: Parte 2 - Parte 4 de 4
        • Acordes Introdução 3
        • Introdução: Parte 3
        • Introdução: Parte 3 - Parte 1 de 3
        • Introdução: Parte 3 - Parte 2 de 3
        • Introdução: Parte 3 - Parte 3 de 3
        • Acordes Primeira Parte
        • Tocando Primeira Parte
        • Ensinando Ritmo 1
        • Acordes Pré-Refrão
        • Tocando Pré-Refrão
        • Ensinando Pré-Refrão
        • Pré-Refrão - Parte 1 de 2
        • Pré-Refrão - Parte 2 de 2
        • Acordes Refrão
        • Tocando Refrão
        • Ensinando Ritmo 2 (principal)
        • Dicas Segunda Parte
        • Tocando Segunda Parte
        • Dicas Terceira Parte
        • Tocando Terceira Parte
        • Dicas Quarta Parte
        • Tocando Quarta Parte
        • Dicas Finais
        • Tocando trecho final
        • Encerramento
        OK