Cifra Club

Directo al corazón

Luis Miguel

Cifra: Principal (violão e guitarra)
Selo Cifra Club: esta cifra foi revisada para atender aos critérios oficiais da nossa Equipe de Qualidade.
tom: Am
     C   Am   Dm   F    G
E|--3---5----5----1----3|
B|--5---5----6----1----3|
G|--5---5----7----2----4|
D|--5---7----7----3----5|
A|--3---7----5----3----5|
E|--3---5----5----1----3|

    INTRO
  (El Intro consta de unos juegos vocales y notas con
el violín Pero con la lira quedaría algo así)
    C                          Am
E|----7-5----5-7---7-5-7----------7-5---5-7---7-5-7--------------|
B|---------------------------------------------------------------|
G|---------------------------------------------------------------|
D|---------------------------------------------------------------|
 B 8-5-----5------5-------5------5-----5-----5-------5------------
E|----------------------------5----------------------------------|

   F                            G
E|--6-5--6---6-8---8-6-8----------8--------8-------8-6-5~--------|
B|------7--------------------------------------------------------|
G|---------------------------------------------------------------|
D|---------------------------------------------------------------|
A|---------------------------------------------------------------|
 E 5--------------5-------5----7-5---5-7------5-7-5---------------

    Estrofa 1
  C                Am
 Dos helados más, mucho que decir
 F                 G
 Todo por hablar, nada que fingir


 Estrofa 2
                     C
 Chiquilla mía somos como el temporal
                             Am
 que arrastra todo y no le importa a donde va,
                      F           Dm
 Nuestro cariño es un barco en altamar,
                     G
 Navega libre sin temor a naufragar.


    Coro
                C
 Cariño mío solo tu y yo, los dos
                  Am
 Sin nada que ocultar, ni tu, ni yo
       Dm
 Lanzamos el amor, y tu y yo,
                 G
 Directo al corazón , al corazón
                 C
 Cariño mio solo tu y yo, los dos
                 Am
 El pájaro y la flor, y tu y yo
              Dm
 Lanzamos el amor, y tu y yo
                 G                                 C
 Directo al corazón al corazón...cariño mio somos dos.


 Se repite la Intro

  Estrofa 3
  C                                      Am
  Salgo a caminar, tus ojos cambian el color de la ciudad,
            Dm    F
  Tu me sonríes y la gente me da igual
      G
  Te quiero tanto que no entiendo nada mas


   Coro
      C
 Cariño mio solo tu y yo, los dos
      Am
 Sin nada que ocultar, ni tu, ni yo
      Dm
 Lanzamos el amor, y tu y yo,
      G
 Directo al corazón , al corazón
      C
 Cariño mio solo tu y yo, los dos
     Am
 El pájaro y la flor, y tu y yo
      Dm
 Lanzamos el amor, y tu y yo
     G            C
 Directo al corazón al corazón...cariño mío somos dos.


   Se repite la Intro


  Coro final
      C
 Cariño mío somos dos, y tu y yo,
     Am
 El pájaro y la flor y tu, y yo
     Dm
 Lanzamos el amor, y tu, y yo
     G                                  C
 Directo al corazón, al corazón, cariño mio somos dos.


         Bueno eso fue todo y espero que les haya servido,
         y también perdón a Rodrigo por piratearme su
         versión pero solo quería completarla y pues asi
         quedo completita. Cualquier comentario a
Outros vídeos desta música
    387 exibições
      • ½ Tom
      • Am
      • Bbm
      • Bm
      • Cm
      • C#m
      • Dm
      • Ebm
      • Em
      • Fm
      • F#m
      • Gm
      • G#m
    • Adicionar à lista

    Afinação da cifra

    Afinador online

      0 comentários

      Ver todos os comentários

      Entre para o Cifra Club PRO

      Tenha acesso a benefícios exclusivos no App e no Site

      • Chega de anúncios

      • Badges exclusivas

      • Mais recursos no app do Afinador

      • Atendimento Prioritário

      • Aumente seu limite de lista

      • Ajude a produzir mais conteúdo

      Cifra Club Pro

      Aproveite o Cifra Club com benefícios exclusivos e sem anúncios
      Cifra Club Pro
      Aproveite o Cifra Club com benefícios exclusivos e sem anúncios
      Ops (: Contenido disponible sólo en portugués.
      OK