Cifra Club

​Melhor Sozinha

Luísa Sonza

Cifra: Principal (violão e guitarra)
Selo Cifra Club: esta cifra foi revisada para atender aos critérios oficiais da nossa Equipe de Qualidade.
tom: Gm
[Intro] Gm  Cm7  F7  Bb
        Eb7M  Ab7M  D4  D

[Tab - Intro]

Parte 1 De 3
   Gm          Cm7          F7
E|------------------------------------------|
B|-------------------4----------------------|
G|-------3---------3---3----------2---------|
D|-----5---5-----5-------5------1---1-------|
A|---5------5--3--------------3-------3-----|
E|-3------------------------1---------------|

Parte 2 De 3
   Bb           Eb7M         Ab7M
E|------------------------------------------|
B|-------3------------3------------5--------|
G|-----3---3--------3---3--------5---5------|
D|---3-------3----5-------5----6-------6----|
A|-1------------6------------4--------------|
E|------------------------------------------|

Parte 3 De 3
   D4           D
E|-------3------------0h2-------------------|
B|-----3---3--------3-----3-----------------|
G|---2-------2----2---------2---------------|
D|-0------------0---------------------------|
A|------------------------------------------|
E|------------------------------------------|

[Primeira Parte] 

Gm                 Cm7
Eu gosto tanto de você
                  F7
Mas isso tudo me dá
                   Bb
Frio na barriga demais
                     Eb7M
Longe de casa e dos meus
                  Ab7M
Só tem você minha      paz
                    D4  D
Mas eu não sei confia___r

[Segunda Parte] 

Gm                   
Ei ninguém até eu sei que você 
 Cm7
Me quer bem
                       F7
Sei que tu quer me ganhar meu bem
                           Bb
Sei que eu também não sou de ninguém
                     Eb7M
Tu só me ganha no olhar

No jeito de amar
            Ab7M
E tu ainda canta bem
                          D4
Sei que sempre que eu chamar, cê vem
                         D
Sei que sempre que еu pedir, tu tem

[Pré-Refrão] 

             Gm 
Pra me dar amor logo toda manhã
          Cm7
Baby mе guarda que eu volto amanhã
          F7
Você me guarda que eu também te 

guardo
                  Bb
E me beija com a boca de hortelã
                 Eb7M
Escreve mais um som que tu é tão bom
                Ab7M
Toda vez é pra mim quero mais um
                    D4
Eu não sou qualquer uma
                  D
Tu não é qualquer um

[Refrão] 

Gm                   Cm7
Eu sou bem melhor sozinha, sabe
 F7                   Bb
Mas talvez tem um cantinho e cabe
    Eb7M
Um pouco, quase nada
        Ab7M
Eu não sou de fazer sala
       D4           D
Então pensa, então tenta

Gm                   Cm7
Eu sou bem melhor sozinha, sabe
 F7                   Bb
Mas talvez tem um cantinho e cabe
    Eb7M
Um pouco, quase nada
        Ab7M
Eu não sou de fazer sala
       D4           D
Então pensa, então tenta

[Solo] Gm  Cm7  F7  Bb
       Eb7M  Ab7M  D4  D

[Tab - Solo]

Parte 1 De 4
                   Gm              Cm7
E|------------------------------------------|
B|-----------------------------4/6-6-6-6-6-6|
G|------------------7h8p7----7-5/7-7-7-7-7-7|
D|-------------9-10-------10----------------|
A|--------9h10------------------------------|
E|-9h10p9-----------------------------------|

Parte 2 De 4
            F7               Bb
E|------------------------------------------|
B|-8-4--3-3-3-3-3-3/4-4---------------------|
G|-8-5--3-3-3-3-3-3/5-5--3-2-2h3p2---2h3----|
D|---------------------------------5-----3~-|
A|------------------------------------------|
E|------------------------------------------|

Parte 3 De 4
  Eb7M                              Ab7M
E|------------------------------------------|
B|--------------------------6h8p6-----------|
G|--------------------5-7-8-------8-7-8p7-5-|
D|--------------5-7-8-----------------------|
A|--6p5---5h6-8-----------------------------|
E|------6-----------------------------------|

Parte 4 De 4
               D4                  D
E|-------------------------5h6p5---5~-------|
B|-------------------------------8----------|
G|-7-3-5~------7h8p7----7~------------------|
D|--------8-10-------10---------------------|
A|------------------------------------------|
E|------------------------------------------|

[Segunda Parte] 

Gm                   
Ei ninguém até eu sei que você 
 Cm7
Me quer bem
                       F7
Sei que tu quer me ganhar meu bem
                           Bb
Sei que eu também não sou de ninguém
                     Eb7M
Tu só me ganha no olhar

No jeito de amar
            Ab7M
E tu ainda canta bem
                          D4
Sei que sempre que eu chamar cê vem
                         D
Sei que sempre que еu pedir, tu tem

[Pré-Refrão] 

             Gm 
Pra me dar amor logo toda manhã
          Cm7
Baby mе guarda que eu volto amanhã
          F7
Você me guarda que eu também te 

guardo
                  Bb
E me beija com a boca de hortelã
                 Eb7M
Escreve mais um som que tu é tão bom
                Ab7M
Toda vez é pra mim quero mais um
                    D4
Eu não sou qualquer uma
                  D
Tu não é qualquer um

[Refrão Final] 

Gm                   Cm7
Eu sou bem melhor sozinha, sabe
 F7                   Bb
Mas talvez tem um cantinho e cabe
    Eb7M
Um pouco, quase nada
        Ab7M
Eu não sou de fazer sala
       D4           D
Então pensa, então tenta

Gm                   Cm7
Eu sou bem melhor sozinha, sabe
 F7                   Bb
Mas talvez tem um cantinho e cabe
    Eb7M
Um pouco, quase nada
        Ab7M
Eu não sou de fazer sala
       D4           D
Então pensa, então tenta

Gm                   Cm7
Eu sou bem melhor sozinha, sabe
 F7                   Bb
Mas talvez tem um cantinho e cabe
    Eb7M
Um pouco, quase nada
        Ab7M
Eu não sou de fazer sala
       D4           D
Então pensa, então tenta
00:00 / 00:00
Outros vídeos desta música
Repetir
Outros vídeos desta música
175.531 exibições
  • Simplificar cifra
    • ½ Tom
    • Am
    • Bbm
    • Bm
    • Cm
    • C#m
    • Dm
    • Ebm
    • Em
    • Fm
    • F#m
    • Gm
    • G#m
  • Adicionar à lista

Afinação da cifra

Afinador online

    0 comentários

    Ver todos os comentários

    Entre para o Cifra Club PRO

    Tenha acesso a benefícios exclusivos no App e no Site

    • Chega de anúncios

    • Mais recursos no app do Afinador

    • Atendimento Prioritário

    • Aumente seu limite de lista

    • Ajude a produzir mais conteúdo

    00:00 / 00:00

    Cifra Club Pro

    Aproveite o Cifra Club com benefícios exclusivos e sem anúncios
    Cifra Club Pro
    Aproveite o Cifra Club com benefícios exclusivos e sem anúncios
    OK