Cifra Club

I Got 5 On It

Luniz

Cifra: Principal (violão e guitarra)
Selo Cifra Club: esta cifra foi revisada para atender aos critérios oficiais da nossa Equipe de Qualidade.
tom: Db
[Bass Line Part A]
G|-----------------|----------------|----------------|-----------------|
D|-----------------|----------------|----------------|-----------------|
A|-1-1-------------| 1-1-------------|1-1-------------|1-1--------------|
E|----------------1|---------------1|---------------1|-------1-4-4----1|

[Bass Line Part B]
G|-----------------|----------------|----------------|-----------------|
D|-----------------|----------------|----------------|-----------------|
A|-----------------|----------------|----------------|---------0-0-----|
E|-2-2------------1| 2-2------------1|2-2------------1|2-2----1--------1|

[Melody Part A]
E|-9----8------9----8~----9----8------9----8----------------|
B|---------------------------------------------9----11------|
G|---10---8~-----10---------10---8~-----10-------10---------|
D|----------------------------------------------------------|
A|----------------------------------------------------------|
E|----------------------------------------------------------|

[Melody Part B]
E|-6---4-----6---4~----6---4-----6---4-----4-6----------|
B|---------------------------------------6--------------|
G|---6---5~----6---------6---5~----6--------------------|
D|------------------------------------------------------|
A|------------------------------------------------------|
E|------------------------------------------------------|
Outros vídeos desta música
    39 exibições
      • ½ Tom
      • A
      • Bb
      • B
      • C
      • Db
      • D
      • Eb
      • E
      • F
      • F#
      • G
      • Ab
    • Adicionar à lista

    Afinação da cifra

    Afinador online

      0 comentários

      Ver todos os comentários

      Entre para o Cifra Club PRO

      Tenha acesso a benefícios exclusivos no App e no Site

      • Chega de anúncios

      • Badges exclusivas

      • Mais recursos no app do Afinador

      • Atendimento Prioritário

      • Aumente seu limite de lista

      • Ajude a produzir mais conteúdo

      Cifra Club Pro

      Aproveite o Cifra Club com benefícios exclusivos e sem anúncios
      Cifra Club Pro
      Aproveite o Cifra Club com benefícios exclusivos e sem anúncios
      Ops (: Contenido disponible sólo en portugués.
      OK