Cifra Club

Circles

Lush

Cifra: Principal (violão e guitarra)
Selo Cifra Club: esta cifra foi revisada para atender aos critérios oficiais da nossa Equipe de Qualidade.
tom: E
E|E|----------------------------------------------------------------------------||
                             Circles – The Lush
E|E|----------------------------------------------------------------------------||
Tabbed by: Jeremy Tripp

Tuning: DADGBe
Listen to the song for strumming patterns

Intro 2x: w/ Delay 
E|--------0--------------0---------------5+---7+------5+------5+-----------|
B|-------------0--------------0---------------------------5+---------------|
G|-------------------------------------------------------------------------|
D|-------------------------------------------------------------------------|
A|---4--------------2--------------0---------------------------------------|
E|-------------------------------------------------------------------------|

Verse I 4x: Rhythm Guitar                                             
                                                              Last time 2x
E|----0-------------0--------------0-------------0---------------|-----0---|
B|----0-------------0--------------0-------------0---------------|-----0---|
G|----6-------------4--------------2-------------2---------------|-----4---|
D|----6-------------4--------------2-------------2---------------|-----4---|
A|----4-------------2--------------0-------------0---------------|-----2---|
E|---------------------------------------------------------------|---------|

Verse I 4x: Lead Guitar                                       Last time 2x
E|-------------------------------------------------4------4---2--|---------|
B|------4---5--4------4---5--4--------4---5--4---------5---------|-4-5--4-5|
G|--------4------4------4------4--------4------4-----------------|---------|
D|---------------------------------------------------------------|---------|
A|---4---------------2-------------0-----------------------------| 0----2---|
E|---------------------------------------------------------------|---------|

Chorus I 4x: Rhythm Guitar Clean                                         End on
E|----0-------------0--------------0-------------0---------------|-----0---|
B|----0-------------0--------------0-------------0---------------|-----0---|
G|----6-------------4--------------2-------------4---------------|-----2---|
D|----6-------------4--------------2-------------4---------------|-----2---|
A|----4-------------2--------------0-------------2---------------|-----0---|
E|---------------------------------------------------------------|---------|

Chorus I 4x: Lead Guitar                                        End riff
E|---------------------------------------------------------| 4--4-----------|
B|---------------------------------------------------------|-4--4--5-4--5-4|
G|----7-------------6--------------4------11-----6---------|--4--4-----4--4|
D|----x-------------x--------------x-------x-----x---------|---------------|
A|----7-------------6--------------4------11-----6---------|---------------|
E|---------------------------------------------------------|---------------|

Post-Chorus: Lead Guitar w/ Delay
E|--------0--------------0---------------5+---7+------5+------5+-----------|
B|-------------0--------------0---------------------------5+------5+-------|
G|-------------------------------------------------------------------------|
D|-------------------------------------------------------------------------|
A|---4--------------2--------------0---------------------------------------|
E|-------------------------------------------------------------------------|

Repeat Verse w/ Drums and Bass






Verse II Buildup: Lead Guitar                                   
E|------------------------------------------------------|
B|---------4------5---4-------------4---5-----4---5-----|
G|-----4-------4----------4-----4---------4-------------|
D|------------------------------------------------------|
A|------------------------------------------------------|
E|------------------------------------------------------|

Chorus II: Rhythm Guitar w/ Distortion
E|--0----------0----------0--------------0-------------|
B|--0----------0----------0--------------0-------------|
G|--6----------4----------2--------------4-------------|
D|--6----------4----------2-------2------4-------------|
A|--4----------2----------0-------2------2-------------|
E|--------------------------------2--------------------|

Post-Chorus 2x: Rhythm Guitar
E|--0----------0----------0--------------0-------------|
B|--0----------0----------0--------------0-------------|
G|--6----------4----------2--------------4-------------|
D|--6----------4----------2-------2------4-------------|
A|--4----------2----------0-------2------2-------------|
E|--------------------------------2--------------------|

Post-Chorus pt. I 4x: Lead Guitar
E|--7p0-----0---------4p0-----0----------------|
B|-------0------7p0--------------0---7p0-------|
G|---------------------------------------------|
D|---------------------------------------------|
A|---------------------------------------------|
E|---------------------------------------------|

Post-Chorus pt. II 4x: Lead Guitar
E|--9p0-----0---------7p0-----0----------------|
B|-------0------9p0--------------0---7p0-------|
G|---------------------------------------------|
D|---------------------------------------------|
A|---------------------------------------------|
E|---------------------------------------------|

Bridge: Rhythm Guitar
E|-----------0-------0-------0------0----------|
B|-----------0-------0-------0------0----------|
G|-----------2-------6-------4------2----------|
D|--2--------2-------6-------4------2----------|
A|--2--------0-------4-------2------0----------|
E|--2------------------------------------------|

Bridge: Lead Guitar
E|-------------------------------------------|-----------------------------|
B|-------------------------------------------|-----------------------------|
G|-------------------------------------------|--13-13-13\11/16-16-16-16----|
D|-------------------------------------------|-----------------------------|
A|--11-11-11\9/14-14-14-14-11-11-9-9-7-7-7-7-|-----------------------------|
E|-------------------------------------------|-----------------------------|

E|--12p0-11p0-12p0-14p0-12p0-11p0-12p0-11p0-7p0-7/9---|
B|----------------------------------------------------|
G|----------------------------------------------------|
D|----------------------------------------------------|
A|----------------------------------------------------|
E|----------------------------------------------------|

E|--12p0-11p0-12p0-14p0-12p0-11p0-7~------------------|
B|----------------------------------------------------|
G|----------------------------------------------------|
D|----------------------------------------------------|
A|----------------------------------------------------|
E|----------------------------------------------------|

Interlude: Rhythm Clean
E|-------------------------------------------------------------------------|
B|-------------------------------------------------------------------------|
G|-------------------------------------------------------------------------|
D|----2--2--2--2--2--2--4--4--4--6--6--6--9--9--9--9--9--9--4--4--4--4--4--|
A|--4--4--4--4--4--4--6--6--6--7--7--7--7--7--7--7--7--7--6--6--6--6--6-6--|
E|-------------------------------------------------------------------------|

E|----------------------------------|
B|----------------------------------|
G|----------------------------------|
D|--2----4----6----9----6----4------|
A|--4----6----7----7----7----6------|
E|----------------------------------|
PM.     .       .       .       .

Chorus III: Rhythm Guitar
E|--0----------0----------0--------------0-------------|
B|--0----------0----------0--------------0-------------|
G|--6----------4----------2--------------4-------------|
D|--6----------4----------2-------2------4-------------|
A|--4----------2----------0-------2------2-------------|
E|--------------------------------2--------------------|
  Clean.. . . . . . . .  Distorted . . . . . . . . . .

Chorus III pt. 1 4x: Lead Guitar
E|--7p0-----0---------4p0-----0----------------|
B|-------0------7p0--------------0---7p0-------|
G|---------------------------------------------|
D|---------------------------------------------|
A|---------------------------------------------|
E|---------------------------------------------|

Chorus III pt. 2 1x: Lead Guitar
E|--9p0-----0---------7p0-----0------------12p0-11p0-12p0-14p0-12p0-11p0-7~|
B|-------0------9p0--------------0---7p0-----------------------------------|
G|-------------------------------------------------------------------------|
D|-------------------------------------------------------------------------|
A|-------------------------------------------------------------------------|
E|-------------------------------------------------------------------------|


| /  slide up
| \  slide down
| h  hammer-on
| p  pull-off
| ~  vibrato
| +  harmonic
| x  Mute note
| PM Palm Mute
============================================================================
Outros vídeos desta música
    1 exibições
      • ½ Tom
      • A
      • Bb
      • B
      • C
      • Db
      • D
      • Eb
      • E
      • F
      • F#
      • G
      • Ab
    • Adicionar à lista

    Afinação da cifra

    Afinador online

      0 comentários

      Ver todos os comentários

      Conseguiu tocar?

      0Tocaram0Ainda não

      Grave um vídeo tocando Circles e nos envie!

      Toque também

      1. Imagem do artista RideParalysed Ride
      2. Imagem do artista MedicineTika Dan Saat Ini Medicine
      3. Imagem do artista ChapterhouseIf You Want Me Chapterhouse
      4. Imagem do artista Sing-singHalal A Majra Sing-sing

      Entre para o Cifra Club PRO

      Tenha acesso a benefícios exclusivos no App e no Site

      • Chega de anúncios

      • Badges exclusivas

      • Mais recursos no app do Afinador

      • Atendimento Prioritário

      • Aumente seu limite de lista

      • Ajude a produzir mais conteúdo

      Cifra Club Pro

      Aproveite o Cifra Club com benefícios exclusivos e sem anúncios
      Cifra Club Pro
      Aproveite o Cifra Club com benefícios exclusivos e sem anúncios
      Ops (: Contenido disponible sólo en portugués.
      OK