Cifra Club

Confusión

Catupecu Machu

Cifra: Principal (violão e guitarra)
tom: Ab
G#
La noche en juego roces
Confusión la vida y más      Estribillo X3
Plegarias, grito a voces
te deseo todo y más.


Riff x2

E|---------------------------------------------------------|
B|---------------------------------------------------------|
G|----3/4-6------------------------------------------------|
D|----------6---------6-4-----------------6-4--------------|
A|------------------------5-6-----------------5-6----------|
E|------------------4---------6-7/4-----4---------6-7/4----|



G#
Como a cuatro pasos del cielo
           B C# A#
un obscuro despertar
G#5
Un coro del infierno
                B  C# A#
todo en sincro por azar.

   E
Escúchame, te voy a hablar
D#    C#   B A# B        C#
voy a ser tu ángel enfermo,
                   D#
tu mortal seguridad
B
ahhhh, ahhhh, ahhhh


G#
La noche en juego roces
confusión la vida y más
Plegarias, grito a voces
Te deseo todo y más.

Riff x2

E|---------------------------------------------------------|
B|---------------------------------------------------------|
G|----3/4-6------------------------------------------------|
D|----------6---------6-4-----------------6-4--------------|
A|------------------------5-6-----------------5-6----------|
E|------------------4---------6-7/4-----4---------6-7/4----|



G#
Quedo absorto, nulo, neutro
            B  C# A#
como sin poder hablar
G#
Las palabras solo intento
               B  C# A#  E
aunque no quiera callar.

E
La insensatez, de la ansiedad
 D#    C#   B A# B        C#
cobra vida el lado siniestro
                  D#
muero uno nazco mas
B
ahhhh, ahhhh, ahhhh

G#
La noche en juego roces
confusión la vida y más
Plegarias, grito a voces
te deseo todo y más.

Riff x1

E|---------------------------------------------------------|
B|---------------------------------------------------------|
G|----3/4-6------------------------------------------------|
D|----------6---------6-4-----------------6-4--------------|
A|------------------------5-6-----------------5-6----------|
E|------------------4---------6-7/4-----4---------6-7/4----|

Riff x1
E|---------------------------------------------------------|
B|---------------------------------------------------------|
G|----3/4-6------------------------------------------------|
D|----------6---------6-4-------------------6-4------------|
A|------------------------5-6-5-----------------5-6--------|
E|------------------4-----------6-7/4-----4---------6-7/4--|



G#
Casi loco, juego enfermo
                  B  C# A#
Casi vicio no es casual
G#
que ocurra este encuentro
                 B  C# A#  E
Y lo q esta por pasar.

   E
Escúchame, te voy a hablar
D#    C#   B A# B        C#
voy a ser tu ángel enfermo.
                   D#
tu mortal seguridad
B
ahhhh, ahhhh, ahhhh

G#
La noche en juego roces,
La noche en juego roces,
La noche en juego roces,
La noche en juego roces,
La noche en juego roces,
confusión la vida y más,
confusión la vida y más,
confusión la vida y más,
te deseo todo y más.
00:00 / 00:00
Outros vídeos desta música
Repetir
Outros vídeos desta música
Composição de Catupecu Machu
33 exibições
    • ½ Tom
    • A
    • Bb
    • B
    • C
    • Db
    • D
    • Eb
    • E
    • F
    • F#
    • G
    • Ab
  • Adicionar à lista

    0 comentários

    Ver todos os comentários

    Entre para oCifra Club PRO

    Tenha acesso a benefícios exclusivos no App e no Site

    • Chega de anúncios

    • Prioridade de compra em lançamentos

    • Mais recursos no app do Afinador

    • Atendimento Prioritário

    • Descontos nos produtos Cifra Club

    • Ajude a produzir mais conteúdo

    00:00 / 00:00

    Cifra Club Pro

    Aproveite o Cifra Club com benefícios exclusivos e sem anúncios
    Cifra Club Pro
    Aproveite o Cifra Club com benefícios exclusivos e sem anúncios
    OK