Cifra Club

El lugar

Catupecu Machu

Cifra: Principal (violão e guitarra)
Selo Cifra Club: esta cifra foi revisada para atender aos critérios oficiais da nossa Equipe de Qualidade.
tom: C
INTRO


E|---------------|
B|---------------|
G|-------5-x-7---| (Las X son palm muted)
D|-5--x--5-x-7---|
A|-5--x--3-x-5---|
E|-3--x----------|

A  INTRO SE D PITE EE NTRAS GABRIEL CANTA,A  PARTE QUE CAMBIA ES AB 

 a donde vas
E|---------------------------------------------------|
B|---------------------------------------------------|
G|----------7b--5--7b--5--7b--5--7b--5--7b--5--------|
D|---------------------------------------------------|
A|---------------------------------------------------|
E|---------------------------------------------------|

     laralalalarala   laralalarala   laralaralalaraooooo
E|----------------------------------------------------------|
B|----------------------------------------------------------|
G|---7-7-7-7-7-7p5----7-7-7-7-7p5----7--7-7-7-7p5-----------|
D|----------------7--------------7---------------7--5--7----|
A|----------------------------------------------------------|
E|----------------------------------------------------------|

   Y digo    Ah,simplemente  sos       Y digo  ah,simplemente   sos
E|--------------------------------------------------------------------------------------|
B|--------------------------------------------------------------------------------------|
G|--------------------------------------------------------------------------------------|
D|------------7--7--7--7------5--5--5-----------7--7---7--7--7------5--5--5-------------|
A|------------7--7--7--7------5--5--5-----------7--7---7--7--7------5--5--5-------------|
E|------------5--5--5--5------3--3--3-----------5--5---5--5--5------3--3--3-------------|

             Ese lugar,esta muy cerca tuyo
E|---------------------------------------------------------------------------|
B|---------------------------------------------------------------------------|
G|---------------------------------------------------------------------------|
D|-----------5--5--5--5--5--5--5--5--5--5----------6--6--6-6----6--6-6-6/7---|
A|-----------5--5--5--5--5--5--5--5--5--5----------6--6--6-6----6--6-6-6/7---|
E|-----------3--3--3--3--3--3--3--3--3--3----------4--4--4-4----4--4-4-4/5---|

       Muy cerca tuyo y mio          Para papa,papapae
E|------------------------------------------------------------|
B|------------------------------------------------------------|
G|-----------------------------------------5--x-7-------5--x-7|
D|------7--7--7--7--7--7--7--7--------5--x-5--x-7--5--x-5--x-7|
A|------7--7--7--7--7--7--7--7--------5--x-3--x-5--5--x-3--x-5|
E|------5--5--5--5--5--5--5--5--------3--x---------3--x-------|


FINAL

  Parapapa,parapa,parapapapapapa
E|-------------------------------|
B|-------------------------------|
G|------------5--x-7-------5--x-7|
D|-------5--x-5--x-7--5--x-5--x-7|
A|-------5--x-3--x-5--5--x-3--x-5|
E|-------3--x---------3--x-------|
Outros vídeos desta música
    101 exibições
      • ½ Tom
      • A
      • Bb
      • B
      • C
      • Db
      • D
      • Eb
      • E
      • F
      • F#
      • G
      • Ab
    • Adicionar à lista

    Afinação da cifra

    Afinador online

      0 comentários

      Ver todos os comentários

      Entre para o Cifra Club PRO

      Tenha acesso a benefícios exclusivos no App e no Site

      • Chega de anúncios

      • Badges exclusivas

      • Mais recursos no app do Afinador

      • Atendimento Prioritário

      • Aumente seu limite de lista

      • Ajude a produzir mais conteúdo

      Cifra Club Pro

      Aproveite o Cifra Club com benefícios exclusivos e sem anúncios
      Cifra Club Pro
      Aproveite o Cifra Club com benefícios exclusivos e sem anúncios
      OK