Cifra Club

Rockupation

Mad Caddies

Cifra: Principal (violão e guitarra)
tom: E
Tabbed by: RICHARD QUINN AKA SOFTCORE_PUNKMO
Email:

Tuning:STANDARD

e|------------------------5--------------------------------------------------|
B|-------------5-7-9-5-555--9-7-5-7-H9-5-------------------------------------|
G|---------------------------------------------------------------------------|
D|---------------------------------------------------------------------------|
A|---------------------------------------------------------------------------|
E|---------------------------------------------------------------------------|
RHYTHM * THREE STRINGS IN THE FOLLOWING CHORDS

e|---------7------------5------------ 7----------7---------------------------|
B|---------7------------5------------ 7----------7---------------------------|
G|---------7--9- X4-----5--6- X4------7--8- X4---7-9  X4---------------------|
D|---------7--9---------5--7----------7--9-------7-9-------------------------|
A|---------7------------5--7----------7--9-------7---------------------------|
E|---------7------------5-------------7----------7---------------------------|
SKA (HIGH) RHYTHM STARTS PLAY THE FOLLOWING CHORDS SPLIT THE STRUMMING AS ON TRACK

e|--------------4----------5------------7---------4--------------------------|
B|--------------5- X4------5-------X4---7------X4-5---X4---------------------|
G|--------------4----------6------------8---------4--------------------------|
D|-------------------------7------------9------------------------------------|
A|---------------------------------------------------------------------------|
E|---------------------------------------------------------------------------|
THIS IS ALL I HAVE SO FAR I WILL ADD ASAP THANKS N PLEASE BE WARNED I THINK THIS
IS 100%ACCURATE BUTS ITS MY FIRST TAB SO LAYOUT MAY BE WORNG !
00:00 / 00:00
Outros vídeos desta música
Repetir
Outros vídeos desta música
Composição de Mad Caddies
301 exibições
    • ½ Tom
    • A
    • Bb
    • B
    • C
    • Db
    • D
    • Eb
    • E
    • F
    • F#
    • G
    • Ab
  • Adicionar à lista

    0 comentários

    Ver todos os comentários

    Conseguiu tocar?

    0 Tocaram 0 Ainda não

    Grave um vídeo tocando Rockupation e nos envie!

    00:00 / 00:00

    Cifra Club Pro

    Aproveite o Cifra Club com benefícios exclusivos e sem anúncios
    Cifra Club Pro
    Aproveite o Cifra Club com benefícios exclusivos e sem anúncios
    OK